Yellowcard - Cigarette Chords & Tabs

 

Cigarette Chords & Tabs

Yellowcard Chords & Tabs

Version: 2 Type: Tab 0 ratings
1 star 2 stars 3 stars 4 stars 5 stars
comments

Cigarette Tab

This song is played in Drop "D" tuning

Intro:

E --------------------------------
B --------------------------------
G 7-----6-----7-----2-----4-----0
D 0-----0-----0-----0-----0-----0
A 0-----0-----0-----0-----0-----0
D 0-----7-----9-----4-----5-----0

E --------------------------------
B --------------------------------
G 7-----6-----7-----2-----9-----11
D 0-----0-----0-----0-----0-----0
A 0-----0-----0-----0-----7-----9
D 0-----7-----9-----4-----0-----0

Bridge:
[ Tab from: http://www.guitartabs.cc/tabs/y/yellowcard/cigarette_tab_ver_2.html ]
E --------------------------------
B --------------------------------
G 7-----0-----7-----0-----4-----0
D 0-----5-----0-----5-----4-----0
A 9-----5-----9-----5-----2-----5
D 0-----0-----0-----0-----0-----5

Chorus:

E --------------
B --------------
G 0-----2-----4
D 0-----0-----4
A 0-----4-----2
D 0-----0-----0

E --------------
B --------------
G 0-----0-----2
D 0-----0-----2
A 5-----0-----0
D 5-----0-----0

That is basically the whole song I can work on it a bit and submit a complete tab.
Comments