Yellowcard - Cigarette Chords & Tabs

 

Cigarette Chords & Tabs

Yellowcard Chords & Tabs

Version: 1 Type: Tab 0 ratings
1 star 2 stars 3 stars 4 stars 5 stars
comments

Cigarette Tab

Yellowcard - Cigarette

This song is in Drop D tuning.  The rhythm is easy to get.
^ = Play rhythm 2 times
* = Play rhythm 4 times
~ = Let Ring

Intro/Verse

E---------------------------------------------------------
B---------------------------------------------------------
G--7---6---7---2---4---2---2---7---6---7---2---9---11
D--0---0---0---0---0---4---0---0---0---0---0---0---0           X3
A--0---0---0---0---0---0---0---0---0---0---0---7---9
D--0---7---9---4---5---0---0---0---7---9---4---0---0
                                          ^                            ^    ^

Chorus:
[ Tab from: http://www.guitartabs.cc/tabs/y/yellowcard/cigarette_tab.html ]
E----------------------------------------------------------------------------
B--3---3---3---3-----------------------------------------------------------
G--2---2---2---2------------7---7---------------------7---7-------7-----
D--4---5---4---5---9---5---7---7---9---5---7---7---7---7---9---5---7~
A--0---0---0---0---9---5---5---4---9---5---5---7---5---4---9---5---7~
D--0---0---0---0---9---5------------9---5--------7------------9-------7~
     ^     ^    ^    ^   *     *    ^    ^    *    *    ^    ^    ^    ^    *    *

Bridge:

E-------------------------------
B-------------------------------
G--7---6---7---2---4---2---2
D--0---0---0---0---0---4---0       X4
A--0---0---0---0---0---0---0
D--0---7---9---4---5---0---0
                                          ^

Outro:

E------------------------------
B--3---3---3---3-------------
G--2---2---2---2-------------
D--4---5---4---5---9---5---7~      Let ring on last time only.
A--0---0---0---0---9---5---7~
D--0---0---0---0---9---5---7~
      ^    ^    ^    ^    *    *    *

The song order is:

Intro/verse
Chorus
Verse
Bridge
Chorus
Outro
Comments