Yellowcard - Believe Chords & Tabs

 

Believe Chords & Tabs

Yellowcard Chords & Tabs

Version: 1 Type: Tab 1 rating
1 star 2 stars 3 stars 4 stars 5 stars
comments

Believe Tab

   
***NOTE TO TAB REVIEWER***
THIS TAB IS A REPLACEMENT OF THE CURRENT TAB FOR THIS SONG ON THIS SITE, WHICH I PREVIOUSLY SUBMITTED.
I HAVE MADE NUMEROUS CORRECTIONS AND STRUCTURAL IMPROVEMENT.  THANKS.

YELLOWCARD
"BELIEVE"
From the album "Ocean Avenue"

TUNING:
GUITAR ONE: DROP D (DADGBE)
GUITAR TWO: DROP D (DADGBE)


INTRO

BOTH GUITARS:
E|------------------------------------------------------------------
B|------------------------------------------------------------------
G|---------------------------------2-2-2-2-2-2-2-2------------------
D|-7-7-7-7-7-7-7-7-7-7-7-7-7-7-7-7-2-2-2-2-2-2-2-2-2-2-2-2-2-2-2-2--
A|-4-4-4-4-4-4-4-4-5-5-5-5-5-5-5-5-0-0-0-0-0-0-0-0-2-2-2-2-2-2-2-2--
D|-4-4-4-4-4-4-4-4-0-0-0-0-0-0-0-0-----------------2-2-2-2-2-2-2-2--

Both guitars play this one time through, then guitar one continues to play it, and guitar two plays this:

GUITAR TWO:
E|------------------------------------------------------------------
B|------------------------------------------------------------------
G|-14--------------------------11-18---------------4----------------
D|-x---------------------------x--x----------------x----------------
A|-12--------------------------9--16---------------2----------------
D|------------------------------------------------------------------

VERSE

After two measures of guitar one's riff and one measure of guitar two's, it goes to the verse:

GUITAR ONE:
E|------------------------------------------------------------
B|------------------------------------------------------------
G|------------------------------------------------------------
D|-7-----7---7---7---7---7---7---7---7---7---6---6---6---6----
A|-4-----4---4---5---5---5---7---7---7---7---7---7---7---7----
D|------------------------------------------------------------
PM  .         .           .       .       .       .       .
"Think about the love..."

Play this twice through, then guitar comes in and plays:

GUITAR TWO:
E|-------------------------------------------------------------
B|-------------------------------------------------------------
G|-----9-------9-------9-------9-----9-------9-------9-------9-
D|---7---7---7---7---7---7---7-----7---7---7---7---6---6---6---
A|-0-------0-------0-------0-----0-------0-------0-------0-----
D|-------------------------------------------------------------

PRECHORUS

Do guitar one's part four times, and guitar two's twice, then go to the prechorus:

GUITAR ONE:
E|-----------------------------------------------------------------
B|-----------------------------------------------------------------
G|-----------------------------------------------------------------
D|-0-0-0-0-0-0-0-0-2-2-2-2-2-2-2-2-4-4-4-4-4-4-4-4-2-2-2-2-2-2-2-2-
A|-0-0-0-0-0-0-0-0-2-2-2-2-2-2-2-2-4-4-4-4-4-4-4-4-2-2-2-2-2-2-2-2-
D|-0-0-0-0-0-0-0-0-2-2-2-2-2-2-2-2-4-4-4-4-4-4-4-4-2-2-2-2-2-2-2-2-
"And you still came back..."

GUITAR TWO:
E|-----------------------------------------------------------------
B|-----------------------------------------------------------------
G|-7---------------9---------------11-----13--14---9--------------
D|-x---------------x---------------x------x---x----x--------------
A|-5---------------7---------------9------11--12---7--------------
D|-----------------------------------------------------------------

GUITAR ONE:
E|--------------------------------------------------------------
B|--------------------------------------------------------------
G|---------2-2-2-2----------------------------------------------
D|-0-0-0-0-2-2-2-2-2-2-2-2-0-0-0-0------------------------------
A|-0-0-0-0-0-0-0-0-2-2-2-2-0-0-0-0------------------------------
D|-0-0-0-0---------2-2-2-2-0-0-0-0------------------------------

GUITAR TWO:
E|--------------------------------------------------------------
B|--------------------------------------------------------------
G|-9-------7-------14-----9-------------------------------------
D|-x-------x-------x------x----9--------------------------------
A|-7-------5-------12-----7----x--------------------------------
D|-----------------------------9--------------------------------

CHORUS

Do all this once through, then the chorus:
[ Tab from: http://www.guitartabs.cc/tabs/y/yellowcard/believe_tab.html ]
GUITAR ONE:
E|---------------------------------------------------------------------------------------------------
B|---------------------------------------------------------------------------------------------------
G|-----2-----2-----2-----2-----2-----2-----2-----2-----2-----2-----2-----2-----1-----1-----1----1----
D|---------------------------------------------------------------------------------------------------
A|-------------------------------------------------0-0---0-0---0-0---0-0-----------------------------
D|-4-4---4-4---4-4---4-4---0-0---0-0---0-0---0-0---------------------------2-2---2-2---2-2---2-2-----
PM . .   . .   . .   . .   . .   . .   . .   . .   . .   . .   . .   . .   . .   . .   . .   . .
"Everything is gonna be alright..."

There is no guitar two on the first chorus.  Do this once through.

INTRO X1

VERSE X1
Note:  For the second verse, guitar one's chords are palm muted in time with the tempo, and guitar two's 

part is not played.

PRECHORUS X1

CHORUS:

GUITAR ONE:
E|---------------------------------------------------------------------------------------------------
B|---------------------------------------------------------------------------------------------------
G|-----2-----2-----2-----2-----2-----2-----2-----2-----2-----2-----2-----2-----1-----1-----1----1----
D|---------------------------------------------------------------------------------------------------
A|-------------------------------------------------0-0---0-0---0-0---0-0-----------------------------
D|-4-4---4-4---4-4---4-4---0-0---0-0---0-0---0-0---------------------------2-2---2-2---2-2---2-2-----
PM . .   . .   . .   . .   . .   . .   . .   . .   . .   . .   . .   . .   . .   . .   . .   . .

Guitar two rests while this is played once through, then on the second time, with heavy effects (sounds 

like flange and wah) this is played:

GUITAR TWO:
E|-------------------------------------------------------------------------------
B|-------------------------------------------------------------------------------
G|-2--4-6--4-7--6-5--------------------------------------------------------------
D|-0--0-0--0-0--0-0--------------------------------------------------------------
A|-x--x-x--x-x--x-x--------------------------------------------------------------
D|-4--6-7--6-9--7-4--------------------------------------------------------------

After this is played through twice, guitar two plays this once:

BRIDGE

GUITAR TWO:
E|------------------------------------
B|------------------------------------
G|------------------------------------
D|------------------------------------
A|-8h10p8h11p8h10p8h11p8h10p8---------
D|------------------------------------

Guitar one then joins in with this:

GUITAR ONE:
E|------------------------------------
B|------------------------------------
G|------------------------------------
D|-7h9p7h11p7h9p7h11p7h11p7-----------
A|------------------------------------
D|------------------------------------

Drums and bass then come in, and guitar one and two continue to repeat these riffs for two measures, then 

guitar two plays this with guitar one's above riff:

GUITAR TWO:
E|------------------------------------
B|------------------------------------
G|------------------------------------
D|------------------------------------
A|-6h8p6h9p6h8p6h9p6h8p6h9p6h8p6------
D|------------------------------------

Guitar two then goes back to it's original bridge riff, and guitar one plays this for one measure:

GUITAR ONE:
E|------------------------------------
B|------------------------------------
G|------------------------------------
D|-6h8p6h10p6h8p6h10p6h8p6h10p6h8p6---
A|------------------------------------
D|------------------------------------

This whole thing is repeated one more time, then it goes into a part which I'll call bridge two.

BRIDGE TWO
E|---------------------------------------------------------------------
B|---------------------------------------------------------------------
G|-----------------7-7-7-7-7-7-7-7-2-2-2-2-2-2-2-2---------------------
D|-4-4-4-4-4-4-4-4-7-7-7-7-7-7-7-7-2-2-2-2-2-2-2-2-2-2-2-2-2-2-2-2-----
A|-4-4-4-4-4-4-4-4-5-5-5-5-5-5-5-5-0-0-0-0-0-0-0-0-2-2-2-2-2-2-2-2-----
D|-4-4-4-4-4-4-4-4---------------------------------2-2-2-2-2-2-2-2-----
"Wanna hold my wife..."

Both guitars do this twice, then there's a short rest where a violin plays, then both guitars go back to 

the above riff and play it four times through, then guitar two does this:

GUITAR TWO:
E|------------------------------------
B|------------------------------------
G|------------------------------------
D|------------------------------------
A|-8h10p8h11p8h10p8h11p8h10p8---------
D|------------------------------------

Guitar two plays this once, then guitar one joins with:

GUITAR ONE:
E|------------------------------------
B|------------------------------------
G|------------------------------------
D|-7h9p7h11p7h9p7h11p7h11p7-----------
A|------------------------------------
D|------------------------------------

Guitar one's riff is played three times, guitar two's is played four times, and that is the end of the 

song.  Have fun with it. 


Comments