Yellowcard - Believe Chords & Tabs

 

Believe Chords & Tabs

Yellowcard Chords & Tabs

Version: 2 Type: Bass Tab

Believe Bass Tab

[Violin Intro]

Intro x2
|---9----9----7----7----7----7----7----6----6----6-----14----14|
|77---77---77---77---77----------------------------------------|
|-------------------------55---55---55---55---55----00----00---|
|--------------------------------------------------------------|

|---13---13--13------------------------------------------------|
|-----------------999999999999---------------------------------|
|00---00---00---0----------------------------------------------|
|--------------------------------------------------------------|

[First Verse No Bass]

(But you still...)1x
|-----------------------------------------------------------------|
|---------------------77777777--99999999--000000-7777-22222-66666-|
|--55555555--77777777---------------------------------------------|
|-----------------------------------------------------------------|

Chorus (Everything is gonna be alright...)
|---------------------------------------------------------------|
|--------------------------------77-777-777-777--99-999-999-999-|
|-----------------55-555-555-555--------------------------------|
|--55-555-555-555-----------------------------------------------|

[Intro X2]
[ Tab from: http://www.guitartabs.cc/tabs/y/yellowcard/believe_btab_ver_2.html ]
Verse (Think about the chance...)
|-----------------------------------------------|
|----------------------777777777--66666666------|
|------------555555555--------------------------|
|--555555555------------------------------------|

Pre-Chorus (And you still...)1x
|-----------------------------------------------------------------|
|---------------------77777777--99999999--000000-7777-22222-66666-|
|--55555555--77777777---------------------------------------------|
|-----------------------------------------------------------------|

Chorus (Everything is gonna be alright...)x2
|---------------------------------------------------------------|
|--------------------------------77-777-777-777--99-999-999-999-|
|-----------------55-555-555-555--------------------------------|
|--55-555-555-555-----------------------------------------------|

Break Out (Again today...)x2
|-----------------------------------------------|
|----------------------777777777--66666666------|
|------------555555555--------------------------|
|--555555555------------------------------------|

Chorus 2 (Wanna hold my...)x2
|-----------------------------------------------|
|----------------------777777777--66666666------|
|------------555555555--------------------------|
|--555555555------------------------------------|

Chorus (Everything is gonna be alright...)x4
|-----------------------------------------------|
|----------------------777777777--66666666------|
|------------555555555--------------------------|
|--555555555------------------------------------|