Yellowcard - Back Home Chords & Tabs

 

Back Home Chords & Tabs

Yellowcard Chords & Tabs

Version: 1 Type: Bass Tab 0 ratings
1 star 2 stars 3 stars 4 stars 5 stars
comments

Back Home Bass Tab

   
Band: Yellow Card
Song: Back Home
CD: Ocean Avenue
Record: PC 2003 Capitol Records Inc.

Intro
G|-------------------------------------------------|
D|-------------------------------------------------|
A|-5-5-555-5-5-3-------------5-5-5-55-5-2-2-7-6-5~-|
D|---------------0-0-000-0-0-----------------------|

Verses
G|--------------------------------------|
D|--------------------------------------|
A|-5-5-55-5-5-5-4-4-44-4-4-2-2-5--2-2-5-|
D|--------------------------------------|

Pre-Chorus
G|---------------------------------------------|
D|---------------------------------------------|
A|-5-5-55-5-5-2-2-22-2-2-5-5-55-5-5-3-3-33-3-3-|
D|---------------------------------------------|
[ Tab from: http://www.guitartabs.cc/tabs/y/yellowcard/back_home_btab.html ]
Chorus
G|---------------------------------------------------|
D|---------------------------------------------------|
A|--------------5-55-55-5-5--------------3-33-33-3-3-|
D|-0-00-0-000-0-------------0-00-0-000-0-------------|

G|-----------------------------------------|
D|-----------------------------------------|
A|--------------5-55-55-5-5-2-22-22-2-2-5~-|
D|-0-00-0-000-0----------------------------|

Post Chorus
G|-------------------------------------|
D|-------------------------------------|
A|-5-5-555-5-5-3-------------5-5-5-55~-|
D|---------------0-0-000-0-0-----------|
Interlude               x2
G|-------|-----------------------------------------------------|
D|-------|-----------------------------------------------------|
A|-------|-3-3-x-3-3-3-4-4-4-44-5-5-55-5-x-4-4-4-44-3-3-33-3-x-|
D|-0~-0~-|-----------------------------------------------------|

G|--------|
D|--------|
A|-7-6-5~-|
D|--------|
Comments