Yellowcard - Avondale Chords & Tabs

 

Avondale Chords & Tabs

Yellowcard Chords & Tabs

Version: 1 Type: Bass Tab 0 ratings
1 star 2 stars 3 stars 4 stars 5 stars
comments

Avondale Bass Tab

Intro
|----|------------------------------|-----|
|----|------------------------------|-----|
|----|--222222222222----------------|-----|
|-333|--------------333333333333-3-0|-000-|
 x1                 x4                 end 


verse (bass only)
                                        
|----------------------------------|
|----------------------------------|
|-22222222--------55555555---------|
|---------33333333--------55555555-|x2
[ Tab from: http://www.guitartabs.cc/tabs/y/yellowcard/avondale_btab.html ]
"that scar"
|-----|---------------------------------
|-----|---------------------------------
|-----|-55555555--------22222222--------
|-5-4~|---------55555555--------33333333 x3 
       on third time to the 5-4~ thing at end then
|-------------------|
|-------------------|
|-555555------2~~---|
|-------555555------|

chorus
|---------------------------------------------|
|---------------------------------------------|
|-55555555-----------------------------------|
|------------3333333355555555333-222-55555-|  x2 

verse again
|-------------------------------------------------------------------|
|-------------------------------------------------------------------|
|-55555555--------22222222---------55555555--------22222222-------2~|
|---------55555555--------33333333---------55555555--------3333333--|

chours

no bass till 3:06

|------------------------------------|
|------------------------------------|
|555555555---------------------------|
|---------33333333-555555555-33333333|

intro again
Comments