Yeah Yeah Yeahs - Warrior Chords & Tabs

 

Warrior Chords & Tabs

Yeah Yeah Yeahs Chords & Tabs

Version: 1 Type: Tab

Warrior Tab

   
-----------------------------------------------------------------------------
			     WARRIOR - Yeah Yeah Yeahs
-----------------------------------------------------------------------------
Tabbed by: Chapman Li
Email: chapman_li@hotmail.com


Read in the forum that someone wanted the tab and no one has done it yet, might as well
it i thought - someone has to! I'm a newbie to all this so please give me a rating or
me a mail to say hi.

A good acoustic tune from the more reflective 2nd album I think


Tuning: Standard


Verse

e|--------------------------------------------------------------------------|
B|--------------------------------------------------------------------------|
G|-5-5-5-5---9-7------------------------------------------------------------|
D|-7-7-7-7---9-7--5-5-5-5---------------------------------------------------|
A|-7-7-7-7---7-5--5-5-5-5---------------------------------------------------|
E|-5-5-5-5--------3-3-3-3---------------------------------------------------|

listen to the record for timing

Chorus
[ Tab from: http://www.guitartabs.cc/tabs/y/yeah_yeah_yeahs/warrior_tab.html ]
e|----------------------------------------------------------------------------|
B|----------------------------------------------------------------------------|
G|----------------------------------------------------------------------------|
D|-7-7-7---7-7-7----7-7-75-5--------------------------------------------------|
A|-7-7-7---7-7-7----7-7-75-5--------------------------------------------------|
E|-5-5-5---5-5-5----5-5-53-3--------------------------------------------------|


Fill 1 (after 1st Chorus)

e|-------------------------------------------------------------------|
B|-------------------------------------------------------------------|
G|----------------etc------------------------------------------------|
D|-------------------------------------------------------------------|
A|---------2-5-------------------------------------------------------|
E|-----3-5-----------------------------------------------------------|


Break

e|--------------------------------------------------------------------------|
B|--------------------------------------------------------------------------|
G|------------------9-9-9--12-12-12----------7-7-7---------7-7-7------------|
D|-7-7-7--10-10-10--9-9-9--12-12-12---5-5-5--7-7-7--5-5-5--7-7-7------------|
A|-7-7-7--10-10-10--7-7-7--10-10-10---5-5-5--5-5-5--5-5-5--5-5-5------------|
E|-5-5-5--8- 8-8----------------------3-3-3---------3-3-3-------------------|


back to Chorus (i.e. Am - G etc)

| /  slide up
|   slide down
| h  hammer-on
| p  pull-off
| ~  vibrato
| +  harmonic
| x  Mute note
=============================================================================