Yeah Yeah Yeahs - Rich Chords & Tabs

 

Rich Chords & Tabs

Yeah Yeah Yeahs Chords & Tabs

Version: 1 Type: Bass Tab 0 ratings
1 star 2 stars 3 stars 4 stars 5 stars
comments

Rich Bass Tab

Band: Yeah Yeah Yeahs
Song Title: Rich
Album: Fever to Tell
Tuning: Standard

No bass in the intro, just guitar.

Verses
G|----------------------------------|
D|----------------------------------|
A|------------------------------5-5-|
E|-0-0-7-7-3-3-2-2--0-0-7-7-3-3-----|
[ Tab from: http://www.guitartabs.cc/tabs/y/yeah_yeah_yeahs/rich_btab.html ]
Chorus ( ) = number of times played. I also add in slides for the transitions.
G|----------------------------------------|
D|----------------------------------------|
A|-7(16)-10(16)-----------------7(12)-----|
E|--------------7(8)-5(4)-10(4)-------5-5-|

Bridge bit [I'm not too sure on this, but this is how I play it]
G|-12-12-12-12-12-12-12-12-12-12-12-12-12-14----|
D|----------------------------------------------|
A|----------------------------------------------|
E|--------------------------------------------0-|

Verse
Chorus
Verse
Bridge
Chorus

That's about it. It's pretty easy and fun to play. Make corrections if needed...
And this is one of my first tabs so don't hate me if it's a little off!
Comments