Yeah Yeah Yeahs - Pin Chords & Tabs

 

Pin Chords & Tabs

Yeah Yeah Yeahs Chords & Tabs

Version: 3 Type: Tab 0 ratings
1 star 2 stars 3 stars 4 stars 5 stars
comments

Pin Tab

   
I've Seen "Pin" Tabs on here that are just so wrong. So here's the REAL way to play it. 
Standard Tuning (Eadgbe)
Yeah Yeah Yeahs
"Pin"
Album: Fever To Tell (one of the best albums ever!)
Tab by: TheLoser

b=bend
r=release bend
x-mute
/ or \=slide

(Intro)       (Verses)

|----------||--------------------------------------|
|-12-------||-12-12-12-12-12\7-7-7-----------------|
|--x-------||--x--x--x--x--x-x-x-x-9-9-9-9-9\5-5-4-|
|-12-------||-12-12-12-12-12\7-7-7-9-9-9-9-9\5-5-5-|
|----------||--------------------------------------|
|----(x16)-||--------------------------------------|

|----------------------------------------|
|12-12-12-12-12\7-7-7--------------------|
|-x--x--x--x--x-x-x-x-9-9-9-9-9/12-12-12-|
|12-12-12-12-12\7-7-7-9-9-9-9-9/12-12-12-|
|----------------------------------------|
|----------------------------------------| (x4)
Things are feelin' thin,
Well I know, I know,
I lost my seed again,
Well I'll Go, I'll go;
Pushin' in the Pin,
Well I Know, I know,
We're gonna go back in,
We're gonna go, go go!..


(Pre-Chorus, but not really a pre-chorus)
|-----------------|
|-----------------|
|-----------------|
|-7-9-7-9-7-9-7-9-|
|-5-7-5-7-5-7-5-7-|
|-----------------|
[ Tab from: http://www.guitartabs.cc/tabs/y/yeah_yeah_yeahs/pin_tab_ver_3.html ]
(Chorus)
|----------------------------------|
|----------------------------------|
|----------------------------------|
|-9-9-9-9-9-9-9-9-7--9-7-9-7-9-7-9-|
|-7-7-7-7-7-7-7-7-5--7-5-7-5-7-5-7-|
|----------------------------------|(x4)
 Bom Bom Bom Bom...  Duh Duh Duh...

(Post-Chorus Stuff)
(Immediately After The Chorus; the wierd sounding stuff)
|-----------------------------|
|-----------------------------|
|-15br--19br--15br--14brbrbr--|
|-----------------------------|
|-----------------------------|
|-----------------------------|

(Immediately After The Wierd Sounding Stuff)
|-----------------------------------------|
|-----------------------------17-17-17-17-|
|-----------------------------------------|
|-2-2-2-2-2-2-2-2/14-14-14-14-------------|
|-----------------------------------------|
|-----------------------------------------|

(Back To The Verse)
Verse part x4

I like to sleep with them,
Pushin' in the Pin,
I Like to sleep with them,
Well I Know, I know,
We're gonna go back in,
We're gonna go, go, go,
We're gonna go back in,
We're gonna go, go, go!

(Then Chorus Again: x4)

(Outro)
|-----------------------------|
|-----------------------------|
|-----------------------------|
|-9-------9-(tremolo picking)-|
|-9-(x24)---------------------|
|-----------------------------|


--Song Order:
Verse 1
Pre-Chorus
Chorus
Post-Chorus Stuff
Verse 2
Pre-Chorus
Chorus
Song Outro
Comments