Yeah Yeah Yeahs - Our Time Chords & Tabs

 

Our Time Chords & Tabs

Yeah Yeah Yeahs Chords & Tabs

Version: 1 Type: Tab 0 ratings
1 star 2 stars 3 stars 4 stars 5 stars
comments

Our Time Tab

   
                        YEAH YEAH YEAHS - OUR TIME

A piss easy song
yeah yeah yeahs
(slipknotbos@hotmail.com)
www.yeahyeahyeahs.com

[ Tab from: http://www.guitartabs.cc/tabs/y/yeah_yeah_yeahs/our_time_tab.html ]
Struming:
   D                  G
|------------------------------|
|------------------------------|
|------------------------------|
|--12--12-------------5--5-----|
|--12--12-------------5--5-----|
|--10--10-------------3--3-----|

Picking:

   D                      G
|--------------------------------------------|
|--------------------------------------------|
|------------------11------------------4-----|
|----------12--------------------5--------5--|
|------12------12------12-----5-----5--------|
|--10----------------------3-----------------|
Comments