Yeah Yeah Yeahs - No No No Chords & Tabs

 

No No No Chords & Tabs

Yeah Yeah Yeahs Chords & Tabs

Version: 2 Type: Tab 0 ratings
1 star 2 stars 3 stars 4 stars 5 stars
comments

No No No Tab

BAND: YEAH YEAH YEAHS
ALBUM: FEVER TO TELL
SONG: NO NO NO

Intro:
E|---------------------------------------------------------------|
B|---------------------------------------------------------------|
G|7777-9999-7777-9999--------------------------------------------|
D|---------------------------------------------------------------|
A|---------------------------------------------------------------|
E|---------------------------------------------------------------| X4
(up/down strokes, listen for rhythm)

(well I'm frozen...)
Same as intro, listen for breaks. 

Kick in distortion (No no no no...):
E|---------------------------------------------------------------|
B|---------------------------------------------------------------|
G|---------------------------------------------------------------|
D|77--22--77--12--9999-777777-(999)------------------------------|
A|77--22--77--12--9999-777777-(999)------------------------------|
E|55--00--55--10--7777-555555-(777)------------------------------|x2
                  ^from here use same rhythm as intro (improv. in places)

Mini-solo:
E|-----------------------------------------------------------------|
B|-----------------------------------------------------------------|
G|--------4~(^)~-------4~-2----------------------------------------|
D|-(2)(2)--------(2)(2)--------------------------------------------|
A|-(2)(2)--------(2)(2)--------------------------------------------|
E|--0--0----------0--0---------------------------------------------| X4

Screech part: Just scratch and feedback, it's pretty hard to recreate.

(It's really not bad it's...)
E|---------------------------------------------------------------|
B|---------------------------------------------------------------|
G|---------------------------------------------------------------|
D|---------------------------------------------------------------|
A|-----7777------7777------5555------5555------------------------|
E|5555------5555------7777------7777------7777-------------------|
 All P.M.
Play that for awhile... 
[ Tab from: http://www.guitartabs.cc/tabs/y/yeah_yeah_yeahs/no_no_no_tab_ver_2.html ]
(well I told her...)
E|---------------------------------------------------------------|
B|---------------------------------------------------------------|
G|--------------------------------------(7)(7)-------------------|
D|(2)(2)(4)(4)(5)(5)(7)(7)--(9)(9)(7)(7)(7)(7)(7)(7)-------------|
A|(2)(2)(4)(4)(5)(5)(7)(7)--(9)(9)(7)(7)-5--5-(7)(7)-------------|
E|-0--0--2--2--3--3--5--5----7--7--5--5--------5--5--------------|
			     ^up strumming tempo

E|---------------------------------------------------------------|
B|---------------------------------------------------------------|
G|---------------------------------------------------------------|
D|-22-44-55-77---------------------------------------------------|
A|---------------------------------------------------------------|
E|--------------77-55-10-10/17-17--------------------------------|

Back to Mini-solo:
E|-----------------------------------------------------------------|
B|-----------------------------------------------------------------|
G|--------4~(^)~-------4~-2----------------------------------------|
D|-(2)(2)--------(2)(2)--------------------------------------------|
A|-(2)(2)--------(2)(2)--------------------------------------------|
E|--0--0----------0--0---------------------------------------------|X4

Last time:
E|-----------------------------------------------------------------|
B|-----------------------------------------------------------------|
G|-----------------------------------------------------------------|
D|--2--2-----------------------------------------------------------|
A|--2--2-----------------------------------------------------------|
E|--0--0-----------------------------------------------------------|

End on:
E|---------------------------------------------------------------|
B|---------------------------------------------------------------|
G|---------------------------------------------------------------|
D|77--22--77--12--9999-777777-(999)------------------------------|
A|77--22--77--12--9999-777777-(999)------------------------------|
E|55--00--55--10--7777-555555-(777)------------------------------|x2
Comments