Yeah Yeah Yeahs - Maps Chords & Tabs

 

Maps Chords & Tabs

Yeah Yeah Yeahs Chords & Tabs

Version: 7 Type: Tab 0 ratings
1 star 2 stars 3 stars 4 stars 5 stars
comments

Maps Tab

			    **Maps ~ Yeah Yeah Yeahs**

Tabbed by: danni 
Tuning: EBGDAE (standard)

it sounds right.


e|------------9-9-9-9-9-9-9-9-9-9-9-9-9-9-9-9-9-9-9-9-9-9-9-9-9-------------|
B|--------------------------------------------------------------------------|
G|--------------------------------------------------------------------------|
D|--------------------------------------------------------------------------|
A|--------------------------------------------------------------------------|
E|--------------------------------------------------------------------------|


e|-9-9-9-9/-5-5-5-5/-9-9-9-9-12-12-12-12------------------------------------|
B|--------------------------------------------------------------------------|
G|--------------------------------------------------------------------------|
D|--------------------------------------------------------------------------|
A|--------------------------------------------------------------------------|
E|--------------------------------------------------------------------------|

e|-9-9-9-9\-5-5-5-5/----14-14-14/-12-/-17-17-17-17--------------------------|
B|--------------------------------------------------------------------------|
G|--------------------------------------------------------------------------|
D|--------------------------------------------------------------------------|
A|--------------------------------------------------------------------------|
E|--------------------------------------------------------------------------|

(4 times)
e|----------------19-19-19-19-17--15-15-15-15-15-12-14-12-------------------|
B|--------------------------------------------------------------------------|
G|--------------------------------------------------------------------------|
D|--------------------------------------------------------------------------|
A|--------------------------------------------------------------------------|
E|--------------------------------------------------------------------------|

e|-----------------19-19-19-17-15-15-15-15-12-12-12-11-14-14-14-14----------|
B|--------------------------------------------------------------------------|
G|--------------------------------------------------------------------------|
D|--------------------------------------------------------------------------|
A|--------------------------------------------------------------------------|
E|--------------------------------------------------------------------------|
[ Tab from: http://www.guitartabs.cc/tabs/y/yeah_yeah_yeahs/maps_tab_ver_7.html ]
                                 
e|--------------------------------------------------------------------------|
B|--------------------------------------------------------------------------|
G|--------------------------------------------------------------------------|
D|-7--7--7--6--7--7--6-----------------7--7--7--6--11-11--------------------|
A|----------------------0-0-0-0-2-2-2-----------------------0-0-0-0-2-2-2---|
E|--------------------------------------------------------------------------|
 |                                          
e|--------------------------------------------------------------------------|
B|--------------------------------------------------------------------------|
G|--------------------------------------------------------------------------|
D|-7--7--7-6--7--6--------------7--7--7--6--11-11-11-9-7-7------------------|
A|----------------0-0-0-0-2-2-2---------------------------------------------|
E|--------------------------------------------------------------------------|

  played together
e|---5-5-5-5-5-5-5-5-5-5-5-5-5----------------------------------------------|
B|--------------------------------------------------------------------------|
G|--------------------------------------------------------------------------|
D|--------------------------------------------------------------------------|
A|--------------------------------------------------------------------------|
E|--------------------------------------------------------------------------|
                                                                           
e|---------------------|---19-19-19-19-17--15-15-15-15-15-12-14-12--(x4)----|
B|---------------------|----------------------------------------------------|
G|---------------------|----------------------------------------------------|
D|--7------------7-----|----------------------------------------------------|
A|-----9-7-0---7---(x4)|----------------------------------------------------|
E|---------------------|----------------------------------------------------|


e|--------------------------------------------------------------------------|
B|--------------------------------------------------------------------------|
G|--------------------------------------------------------------------------|
D|-7--7--7--6--7--7--6-----------------7--7--7--6--11-11--------------------|
A|----------------------0-0-0-0-2-2-2-----------------------0-0-0-0-2-2-2---|
E|--------------------------------------------------------------------------|
 |                                          
e|--------------------------------------------------------------------------|
B|--------------------------------------------------------------------------|
G|--------------------------------------------------------------------------|
D|-7--7--7-6--7--6--------------7--7--7--6--11-11-9-7-7---------------------|
A|----------------0-0-0-0-2-2-2---------------------------------------------|
E|--------------------------------------------------------------------------|
Comments