Yeah Yeah Yeahs - Maps Chords & Tabs

 

Maps Chords & Tabs

Yeah Yeah Yeahs Chords & Tabs

Version: 5 Type: Tab 0 ratings
1 star 2 stars 3 stars 4 stars 5 stars
comments

Maps Tab

tabbed by !_ToToy_!
Maps of yeah yeah yeahs

intro

* is 8 times
/slide

E-----------------------------------------------------------------
B----15-15-15-15-15-15-15-15-15-15-15-15-15-----------------------
G-----------------------------------------------------------------
D-----------------------------------------------------------------
A-----------------------------------------------------------------
E-----------------------------------------------------------------

got the idea? its many times dunno how many

verse

E-----------------------------------------------------------------
B----12-12-12-12/8-8-8-8--12-12-12-12/15-15-15-15-----------------
G-----------------------------------------------------------------
D-----------------------------------------------------------------
A-----------------------------------------------------------------
E-----------------------------------------------------------------
[ Tab from: http://www.guitartabs.cc/tabs/y/yeah_yeah_yeahs/maps_tab_ver_5.html ]
E-----------------------------------------------------------------
B---12-12-12-12/8-8-8-8--17-17-17-17/20-20-20-20------------------
G-----------------------------------------------------------------
D-----------------------------------------------------------------
A-----------------------------------------------------------------
E-----------------------------------------------------------------

chorus

E---19*/15*-19*/15*-19*/15*-19*/15*-------------------------------
B-----------------------------------------------------------------
G-----------------------------------------------------------------
D-----------------------------------------------------------------
A-----------------------------------------------------------------
E-----------------------------------------------------------------

right after chorus

E---19-19-19-17-15-15-15-15-12-12-12-12-15-15-15-15---------------
B-----------------------------------------------------------------
G-----------------------------------------------------------------
D-----------------------------------------------------------------
A-----------------------------------------------------------------
E-----------------------------------------------------------------

repeat verse

repeat chorus

strange part

repeat chorus

strange part again

intro


comments there is a buttom up here
Comments