Yeah Yeah Yeahs - Maps Chords & Tabs

 

Maps Chords & Tabs

Yeah Yeah Yeahs Chords & Tabs

Version: 2 Type: Tab 0 ratings
1 star 2 stars 3 stars 4 stars 5 stars
comments

Maps Tab

   
Song: Maps
Artist: The Yeah Yeah Yeah’s
Album: Fever to Tell (I think!)
Tabbed by: Lauren

My 1st tab!  I saw some other ones that I thought were missing some parts, so I decided to add my own version.

-Standard Tuning-

Intro: Not that hard, just hold down @ 10 and strum that string really fast.

E---10----
B---------
G---------
D---------
A---------
E---------


Verse: 

E---7-7-7-7-3-3-3-3-7-7-7-7-10-10-10-10
B--------------------------------------
G--------------------------------------
D--------------------------------------
A--------------------------------------
E--------------------------------------

E---7-7-7-7-3-3-3-3-12-12-12-12-15-15-15-15
B------------------------------------------
G------------------------------------------
D------------------------------------------
A------------------------------------------
E------------------------------------------


Chorus: Repeat 4x

E---7-7-7-7-7-7-5-5-3-3-3-3-3-3-3/7----
B--------------------------------------
G--------------------------------------
D--------------------------------------
A--------------------------------------
E--------------------------------------

Short Solo:
[ Tab from: http://www.guitartabs.cc/tabs/y/yeah_yeah_yeahs/maps_tab_ver_2.html ]
E-19-19-19-19-17-15-15-15-15-12-12-12-10-15-15-15-
B-------------------------------------------------
G-------------------------------------------------
D-------------------------------------------------
A-------------------------------------------------
E-------------------------------------------------


Repeat Verse & Chorus


Guitar Solo:

E---------------------------------------------
B-------------------------------0-------------
G--0---0-------------------0------------------
D----4---0--------------------4---------------
A---------------------------------------------
E----------3-3-3-3-5-5-------------3-3-3-3-5-5

E---------------------------------------------
B-------------------------------0-------------
G--0---0-------------------0-------2-0--------
D----4---0--------------------4---------------
A---------------------------------------------
E----------3-3-3-3-5-5------------------3-----


After Solo: (2 different parts being played at the same time)

Pt. 1:

E--3-3-3-3-3-3-3-3—    etc. on all the upbeats
B-------------------
G-------------------
D-------------------
A-------------------
E-------------------

Pt. 2:

E-------------------------------------
B-------------------------------------
G--0------------0-----0-------------0-
D-----2-0---------------2-0-----------
A-------------------------------------
E---------3----3-----3-------3----3---


Chorus, Guitar Solo, Outro (same as intro!)


Have fun.

Questions/Comments? Email me at lmonaco5@comcast.net 
Comments