Yeah Yeah Yeahs - Date With The Night Chords & Tabs

 

Date With The Night Chords & Tabs

Yeah Yeah Yeahs Chords & Tabs

Version: 3 Type: Tab 0 ratings
1 star 2 stars 3 stars 4 stars 5 stars
comments

Date With The Night Tab

Drop- D tuning

all distorted unless labeled otherwhise

*- Harmonic
/-slide up
\-slide down
s-slower

intro
e----------------------------------------------------------------------|
b----------------------------------------------------------------------|
g----------------------------------------------------------------------|
d----------------------------------------------------------------------|
a----------------------------------------------------------------------|
d-0-0-5*-0-0-0-5*-0-0-0-5*-0-0-0-5*-0-0-0-5*-0-0-0-5*-0-0-0-5*-0-5*----|

Verse
e------------------------------------------------------------------------------|
b------------------------------------------------------------------------------|
g--------------------------------------------  (repeat until)------------------|
d--------------------------------------------------------7-7-7-7-5-5-5-5-------|
a--------------------------------------------------------7-7-7-7-5-5-5-5-------|
d-0-0-15-17-0-0-10-12-0-0-15-17-0-0-10-12--------------7-7-7-7-5-5-5-5---------|

Repeat verse until "chomp" part

"chomp" part
e-1-/\/\/\/\/\/\/\/\/\/\/\/\/\/s
b-1-/\/\/\/\/\/\/\/\/\/\/\/\/\/s
g-1-/\/\/\/\/\/\/\/\/\/\/\/\/\/s
d-1-/\/\/\/\/\/\/\/\/\/\/\/\/\/s
a-1-/\/\/\/\/\/\/\/\/\/\/\/\/\/s
d-1-/\/\/\/\/\/\/\/\/\/\/\/\/\/s

Repeat verse
[ Tab from: http://www.guitartabs.cc/tabs/y/yeah_yeah_yeahs/date_with_the_night_tab_ver_3.html ]
Repeat chomp

Pre-Solo (rapidly pick)
e----------------|
b-3/s------------|
g----------------|
d----------------|
a----------------|
d----------------|

"I'll Set You..." part (clean)
e--------------------------------------------------------------------------|
b--------------------------------------------------------------------------|
g--------------------------------------------------------------------------|
d--------------------------------------------------------------------------|
a--------------------------------------------------------------------------|
d-0-0-15-17-0-0-10-12-0-0-15-17-0-0-10-12----------------------------------|

After the scream(distorted)
e-----------------------------------------------|
b-3(rapidly picked)-/17\-3(rapidly picked)-/17\-|
g-----------------------------------------------|
d-----------------------------------------------|
a-----------------------------------------------|
d-----------------------------------------------|

Repeat Both "I'll Set You...", and After Scream parts once

Intro

Verse

At the very end of the last verse
e--------------------------------------|
b--------------------------------------|
g--------------------------------------|
d-7-7-7-7-5-5-5-5-7-7-7-7-5-5-5-5-5/---|
a-7-7-7-7-5-5-5-5-7-7-7-7-5-5-5-5-5/---|
d-7-7-7-7-5-5-5-5-7-7-7-7-5-5-5-5-5/---|
Comments