Yeah Yeah Yeahs - Date With The Night Chords & Tabs

 

Date With The Night Chords & Tabs

Yeah Yeah Yeahs Chords & Tabs

Version: 1 Type: Tab 0 ratings
1 star 2 stars 3 stars 4 stars 5 stars
comments

Date With The Night Tab

X===============================PLEASE NOTE==============================X
X  This tab is all my own and represents my interpretation of the song.  X
X You may only use this tab for private study, scholarship, or research. X
X  Do not change, deface, mutilate, or in any other way alter this tab.  X
X   You must email me first if you want to use this tab on your site.    X
X========================================================================X

Yeah Yeah Yeahs-Date With The Night
Tabbed by:Matt (moshin_matt@hotmail.com)

Listen for rhythm, it's not that hard. 
P.M.-Palm Mute
(5)-Implied note.


Intro:
E|----------------| |--------------------|  |---|
B|----------------| |--------------------|  |---|
G|----------------| |--------------------|  |---|
D|----------------| |--------------------|  |---|
A|----------------| |--------------------|  |---|
E|-0-0-3*-0-0-0-3*| |-0-0-0-3*-0-0-0-3*--|x2|0-0|

[ Tab from: http://www.guitartabs.cc/tabs/y/yeah_yeah_yeahs/date_with_the_night_tab.html ]
(I got a...)		   First time:		Second Time
E|---------------------|  |--------------------| |--------------------|
B|---------------------|  |--------------------| |--------------------|
G|---------------------|  |--14-14-12-12-------| |-14-14--------------|
D|---------------------|  |--14-14-12-12-------| |-14-14-7-7----------|
A|--------12-----------|  |--12-12-10-10-------| |-12-12-7-7----------|
E|-0-0-10----0-0-10-12-|x4|--------------------| |-------5-5----------|
							  ^this could be wrong.
(Chow chow chow!...)
Just scratch lots (drums and Karen are loudest anyway)

Repeat Verse
Repeat insanity.

Mini-Solo:
E|--------------------|
B|--------------------|
G|--///21-------------|
D|12///21-------------|
A|--------------------|
E|--------------------| 

Interlude:
(I'll set you...):
E|---------------------|  
B|---------------------|  
G|---------------------| 
D|---------------------|  
A|--------12-----------|  
E|-0-0-10----0-0-10-12-|x8
  P.M. for damper sound.

I use a slide for this part,just remember to slide up faster than down. :
E|--------------------|
B|-3//17\\\\3---------|
G|--------------------|
D|--------------------|
A|--------------------|
E|--------------------|
Trem. picked.

Interlude is then repeated.

Then Back to intro then verse.

End-just play higher power chords.


Comments