Yeah Yeah Yeahs - Bang Chords & Tabs

 

Bang Chords & Tabs

Yeah Yeah Yeahs Chords & Tabs

Version: 1 Type: Tab 0 ratings
1 star 2 stars 3 stars 4 stars 5 stars
comments

Bang Tab

Yeah Yeah Yeahs - Bang

I didn't tab this, just submitted, so full credit goes to whoever made it

GUITAR:
e----------------------------------------------------------------------23-|
B----------------------------------------------------------------------22-|
G-------------------------------------------------------------------------|
D-------------------------------------------------------------------------|
A---5--5------1--------5--5------1--------5--5------1--------5--5---------|
E-3---3--3-1-1--3--1-3---3--3-1-1--3--1-3---3--3-1-1--3--1-3---3--3-1-1---|
	("bang bang bang, the bigger, the better...")
        (also for: "my skin tonite is a-blazing...")
	(also for: "what i need tonite's the real thing...")
[ Tab from: http://www.guitartabs.cc/tabs/y/yeah_yeah_yeahs/bang_tab.html ]
e-----------------------------------------------------------------------|
B-----------------------------------------------------------------------|
G---------------------------------------------------------10--10--12-12-|
D---12--12--12-12-----10--10--10-10-----12--12--12-12-----10--10--12-12-|
A---12--12--12-12-----10--10--10-10-----12--12--12-12-----8---8---10-10-|
E---10--10--10-10-----8---8---8--8------10--10--10-10-------------------|
        ("as a **** - son, you suck...")

e---------------------------------------------------------------------2-2-3-|
B---------------------------------------------------------------------2-2-2-|
G---------------------------------------------------------------------------|
D---------------------------------------------------------------------------|
A---5----------1-------5--5------1-------5--5------1-------5----------------|
E-3---3---2-1------1-3------3-1-1---1-3---3--3---1--3---3---3--3-1-1--------|
	(no vocals)

e------------------------------------|
B------------------------------------|
G-----12---12--11-10-10---15-15-15---|   x4
D---12---12----11-10------15---------|
A---10---10----9--8-------13---------|
E------------------------------------|
	("yeah hea hea.. come on...")

D--5b6----x-x---5-|
A--5b6----x-x---5-|
E--3b4----x-x---3-|  etc...


=-=-=-=-=-=-=-=-=-=-=-=-=-=-=-=-=-=-=-=-=-=-=-=-=-=-=-
Comments