Ye Wiles - Cry Wolf Chords & Tabs

 

Cry Wolf Chords & Tabs

Ye Wiles Chords & Tabs

Version: 1 Type: Tab 0 ratings
1 star 2 stars 3 stars 4 stars 5 stars
comments

Cry Wolf Tab

   
Ye Wiles - Cry Wolf. tabbed by Will Burns. e-mail: burnsy1983@hotmail.com

intro:
e--8/9---9--9--9  ( /= slide ) (h= hammer on ) (r= release ) 
b--9/10-10-10-10
g-10/11-11-11-11
d-10/11-11-11-11
a--8/9---9--9--9
E--8/9---9--9--9



verse:
e- 9- 9-10-7- play this using upstrokes and lifting fingers slightly
b-10- 9-10-9- off fret after strum for a ska sound.
g-11-10-11-9-
d------------
a------------
E------------

riff during verse:

e---------------------------------------
b---------------------------------------
g-14-11-14-13-10-13-14-11-11-10---------
d-------------------------------11h12r11
a---------------------------------------
E---------------------------------------

[ Tab from: http://www.guitartabs.cc/tabs/y/ye_wiles/cry_wolf_tab.html ]
e------------------------------------------
b-------------------------------14-14h15r14
g-14-11-14-13-10-13-14-11-11-10------------
d------------------------------------------
a------------------------------------------
E------------------------------------------


chorus:



lyrics:
long before we set so high and mighty,   
there were others with a vision not so short sighted,
listen to the papers and the media master, mankind travelling faster
Faster is a virus that clouds the judgement,
i'm sick of staring at the letter waiting to be sent... dig a deeper hole
that's not the solution -can't make moves yet have to hold my tongue.
why won't they listen when we ask them so politely,
what will it take for some of us to just get heard,
i want to ask them knowing only that it's too late.
i wonder if it's worth forming the words... WHO CRIED WOLF?
WHO CRIED WOLF? DIDN'T EXPECT THE KNIFE WHEN MY BACK WAS TURNED ALL CRIED OUT,
BUT WERE GAGGED AND BOUND THE WARNING IS LATE FOR ME ask away,
don't be scared, lay the blames on those who dared.
I have to question your right to undermine me,
I feel i have to cry.. cry wolf..........
Comments