Yashin - Friends In High Places Chords & Tabs

 

Yashin Chords & Tabs

Version: 2 Type: Tab 0 ratings
1 star 2 stars 3 stars 4 stars 5 stars
comments

Friends In High Places Tab

   
artist: yashin
album : put your hands where i can see them
track : friends in high places
tuning: drop-c

made by: Danny Holyoake - March 2011
email: danny.holyoake@gmail.com

//Tabbed entirely by ear. I'm about 90% confident inthe accuracy of this tab.
//Please rate and comment if you wish.
//Feel free to email me (above) for any questions, or if you just wanna chat!

//I have a video of me covering this on youtube, you can view that here - 
http://www.youtube.com/watch?v=jQACzy-qw2M for any further help.


intro
D|----------------------------------------------------------------|
A|----------------------------------------------------------------|
F|----------------------------------------------------------------|
C|----------------------------------------------------------------|
G|-3~h5p3p0--0-3-5-x-3-5-3-0-0-3-5-x------------------------------|
C|-----------0-3-5-x-3-5---0-0-3-5-x------------------------------|
PM                         . .

D|----------------------------------------------------------------|
A|----------------------------------------------------------------|
F|----------------------------------------------------------------|
C|-----------------------------7----------------------------------|
G|-3~h5p3p0--0-3-5-x-----7-------8--------------------------------|
C|-----------0-3-5-x-5/8---8-8------------------------------------|
PM                         . .

D|----------------------------------------------------------------|
A|----------------------------------------------------------------|
F|----------------------------------------------------------------|
C|----------------------------------------------------------------|
G|-3~h5p3p0--0-3-5-x-3-5-3-0-0-3-5-x------------------------------|
C|-----------0-3-5-x-3-5---0-0-3-5-x------------------------------|
PM                         . .

D|----------------------------------------------------------------|
A|----------------------------------------------------------------|
F|----------------------------------------------------------------|
C|-----------------------------7----------------------------------|
G|-3~h5p3p0--0-3-5-x-----7-------8--------------------------------|
C|-----------0-3-5-x-5/8---8-8------------------------------------|
PM                         . .

verse
D|----------------------------------------------------------------|
A|----------------------------------------------------------------|
F|----------------------------------------------------------------|
C|----------------------------------------------------------------|
G|-3~h5p3p0--0-3-5-x-3-5-3-0-0-3-5-x------------------------------|
C|-----------0-3-5-x-3-5---0-0-3-5-x------------------------------|
PM                         . .

D|----------------------------------------------------------------|
A|----------------------------------------------------------------|
F|----------------------------------------------------------------|
C|-----------------------------7----------------------------------|
G|-3~h5p3p0--0-3-5-x-----7-------8--------------------------------|
C|-----------0-3-5-x-5/8---8-8------------------------------------|
PM                         . .

D|----------------------------------------------------------------|
A|----------------------------------------------------------------|
F|----------------------------------------------------------------|
C|----------------------------------------------------------------|
G|-3~h5p3p0--0-3-5-x-3-5-3-0-0-3-5-x------------------------------|
C|-----------0-3-5-x-3-5---0-0-3-5-x------------------------------|
PM                         . .

D|----------------------------------------------------------------|
A|----------------------------------------------------------------|
F|----------------------------------------------------------------|
C|-----------------------------7----------------------------------|
G|-3~h5p3p0--0-3-5-x-----7-------8--------------------------------|
C|-----------0-3-5-x-5/8---8-8------------------------------------|
PM                         . .

pre-chorus
D|----------------------------------------------------------------|
A|----------------------------------------------------------------|
F|----------------------------------------------------------------|
C|------5p0-3p0---------------------------5p0-3p0-----------------|
G|-1~-1---------5p0-3~h5p3p0---------3~-3---------5p0-3-0~-3~-5~--|
C|---------------------------0-3-5h0--------------------0~-3~-5~--|
PM                                                      .  .  .

chorus
D|----------------------------------------------------------------|
A|-------------------------------------6-6-6-5--------------------|
F|------------------5-5-5-5-5-5-5------5-5-5-5----5-5-5-5-5-7-7---|
C|-3~-3-5-5-5-3---3-3-3-3-3-3-3-3-----------------5-5-5-5-5-7-7---|
G|-1~-1-1-1-1-1---1-1-1-1-1-1-1-1-0~-0------------3-3-3-3-3-5-5---|
C|--------------------------------0~-0----------0-----------------|

D|----------------------------------------------------------------|
A|-------------------------------------6-6-6-5--------------------|
F|------------------5-5-5-5-5-5-5------5-5-5-5----5-5-5-5-5-7-7---|
C|-3~-3-5-5-5-3---3-3-3-3-3-3-3-3-----------------5-5-5-5-5-7-7---|
G|-1~-1-1-1-1-1---1-1-1-1-1-1-1-1-0~-0------------3-3-3-3-3-5-5---|
C|--------------------------------0~-0----------0-----------------|

D|----------------------------------------------------------------|
A|------------------------------------6-6-6-5-5-5-5-6-6-6-6/8-----|
F|------2h3p2-------------------------5-5-5-5-5-5-5-5-5-5-5/7-----|
C|------------3/5\3-2h3p2---2-------------------------------------|
G|-1~-1-------------------3--3-1-0~-0-----------------------------|
C|-------------------------------0~-0-----------------------------|

D|----------------------------------------------------------------|
A|------------------------------------6-6-6-5-5-5-5-6-6-6-6/8-----|
F|------2h3p2-------------------------5-5-5-5-5-5-5-5-5-5-5/7-----|
C|------------3/5\3-2h3p2---2-------------------------------------|
G|-1~-1-------------------3--3-1-0~-0-----------------------------|
C|-------------------------------0~-0-----------------------------|

intro
D|----------------------------------------------------------------|
A|----------------------------------------------------------------|
F|----------------------------------------------------------------|
C|----------------------------------------------------------------|
G|-3~h5p3p0--0-3-5-x-3-5-3-0-0-3-5-x------------------------------|
C|-----------0-3-5-x-3-5---0-0-3-5-x------------------------------|
PM                         . .

D|----------------------------------------------------------------|
A|----------------------------------------------------------------|
F|----------------------------------------------------------------|
C|-----------------------------7----------------------------------|
G|-3~h5p3p0--0-3-5-x-----7-------8--------------------------------|
C|-----------0-3-5-x-5/8---8-8------------------------------------|
PM                         . .

D|----------------------------------------------------------------|
A|----------------------------------------------------------------|
F|----------------------------------------------------------------|
C|----------------------------------------------------------------|
G|-3~h5p3p0--0-3-5-x-3-5-3-0-0-3-5-x------------------------------|
C|-----------0-3-5-x-3-5---0-0-3-5-x------------------------------|
PM                         . .

D|----------------------------------------------------------------|
A|----------------------------------------------------------------|
F|----------------------------------------------------------------|
C|-----------------------------7----------------------------------|
G|-3~h5p3p0--0-3-5-x-----7-------8--------------------------------|
C|-----------0-3-5-x-5/8---8-8------------------------------------|
PM                         . .

verse2
D|----------------------------------------------------------------|
A|----------------------------------------------------------------|
F|----------------------------------------------------------------|
C|----------------------------------------------------------------|
G|-3~h5p3p0--0-3-5-x-3-5-3-0-0-3-5-x------------------------------|
C|-----------0-3-5-x-3-5---0-0-3-5-x------------------------------|
PM                         . .

D|----------------------------------------------------------------|
A|----------------------------------------------------------------|
F|----------------------------------------------------------------|
C|-----------------------------7----------------------------------|
G|-3~h5p3p0--0-3-5-x-----7-------8--------------------------------|
C|-----------0-3-5-x-5/8---8-8------------------------------------|
PM                         . .

D|----------------------------------------------------------------|
A|----------------------------------------------------------------|
F|----------------------------------------------------------------|
C|----------------------------------------------------------------|
G|-3~h5p3p0--0-3-5-x-3-5-3-0-0-3-5-x------------------------------|
C|-----------0-3-5-x-3-5---0-0-3-5-x------------------------------|
PM                         . .

D|----------------------------------------------------------------|
A|----------------------------------------------------------------|
F|----------------------------------------------------------------|
C|-----------------------------7----------------------------------|
G|-3~h5p3p0--0-3-5-x-----7-------8--------------------------------|
C|-----------0-3-5-x-5/8---8-8------------------------------------|
PM                         . .

pre-chorus
D|----------------------------------------------------------------|
A|----------------------------------------------------------------|
F|----------------------------------------------------------------|
C|------5p0-3p0---------------------------5p0-3p0-----------------|
G|-1~-1---------5p0-3~h5p3p0---------3~-3---------5p0-3-0~-3~-5~--|
C|---------------------------0-3-5h0--------------------0~-3~-5~--|
[ Tab from: http://www.guitartabs.cc/tabs/y/yashin/friends_in_high_places_tab_ver_2.html ]
D|--------------------------------------------------------------------|
A|--------------------------------------------------------------------|
F|----------------------------------------------------9*^10^9p7-------|
C|------5p0-3p0---------------------------5p0-3p0---------------10s12-|
G|-1~-1---------5p0-3~h5p3p0---------3~-3---------5p0-----------------|
C|---------------------------0-3-5h0----------------------------------|

chorus
D|----------------------------------------------------------------|
A|-------------------------------------6-6-6-5--------------------|
F|------------------5-5-5-5-5-5-5------5-5-5-5----5-5-5-5-5-7-7---|
C|-3~-3-5-5-5-3---3-3-3-3-3-3-3-3-----------------5-5-5-5-5-7-7---|
G|-1~-1-1-1-1-1---1-1-1-1-1-1-1-1-0~-0------------3-3-3-3-3-5-5---|
C|--------------------------------0~-0----------0-----------------|

D|----------------------------------------------------------------|
A|-------------------------------------6-6-6-5--------------------|
F|------------------5-5-5-5-5-5-5------5-5-5-5----5-5-5-5-5-7-7---|
C|-3~-3-5-5-5-3---3-3-3-3-3-3-3-3-----------------5-5-5-5-5-7-7---|
G|-1~-1-1-1-1-1---1-1-1-1-1-1-1-1-0~-0------------3-3-3-3-3-5-5---|
C|--------------------------------0~-0----------0-----------------|

D|----------------------------------------------------------------|
A|------------------------------------6-6-6-5-5-5-5-6-6-6-6/8-----|
F|------2h3p2-------------------------5-5-5-5-5-5-5-5-5-5-5/7-----|
C|------------3/5\3-2h3p2---2-------------------------------------|
G|-1~-1-------------------3--3-1-0~-0-----------------------------|
C|-------------------------------0~-0-----------------------------|

D|----------------------------------------------------------------|
A|------------------------------------6-6-6-5-5-5-5-6-6-6-6/8-----|
F|------2h3p2-------------------------5-5-5-5-5-5-5-5-5-5-5/7-----|
C|------------3/5\3-2h3p2---2-------------------------------------|
G|-1~-1-------------------3--3-1-0~-0-----------------------------|
C|-------------------------------0~-0-----------------------------|

bridge
D|----------------------------------------------------------------|
A|----------------------------------------------------------------|
F|----------------------------------------------------------------|
C|-0~-------------------------------------------------------------|
G|-0~-------------------------------------------------------------|
C|-0~-------------------------------------------------------------|

D|----------------------------------------------------------------|
A|----------------------------------------------------------------|
F|----------------------------------------------------------------|
C|-0~-------------------------------------------------------------|
G|-0~-------------------------------------------------------------|
C|-0~-------------------------------------------------------------|

//CHUG CHUG CHUG

D|----------------------------------------------------------------|
A|----------------------------------------------------------------|
F|----------------------------------------------------------------|
C|-00000---00000----0----00000---00000---00000---000000000--------|
G|-00000---00000----0----00000---00000---00000---000000000--------|
C|-00000---00000----0----00000---00000---00000---000000000--------|
PM .....   .....    .    .....   .....   .....   .........

//(you might be better off working this out yourself)

D|----------------------------------------------------------------|
A|----------------------------------------------------------------|
F|----------------------------------------------------------------|
C|-00000---00000----0----00000---00000---00000---000000000000-----|
G|-00000---00000----0----00000---00000---00000---000000000000-----|
C|-00000---00000----0----00000---00000---00000---000000000000-----|
PM .....   .....    .    .....   .....   .....   ............

//slow it down now

D|----------------------------------------------------------------|
A|----------------------------------------------------------------|
F|----------------------------------------------------------------|
C|-0-0-0~-0-0-0~--0~--0-0-0~-0-0-0~-0-0-0~-0~-0~-0~-0~-0~-0~-0~---|
G|-0-0-0~-0-0-0~--0~--0-0-0~-0-0-0~-0-0-0~-0~-0~-0~-0~-0~-0~-0~---|
C|-0-0-0~-0-0-0~--0~--0-0-0~-0-0-0~-0-0-0~-0~-0~-0~-0~-0~-0~-0~---| 
PM . . .  . . .   .   . . .  . . .  . . .  .  .  .  .  .  .  .

D|----------------------------------------------------------------|
A|----------------------------------------------------------------|
F|----------------------------------------------------------------|
C|-0-0-0~-0-0-0~--0~--0-0-0~-0-0-0~-0-0-0~-0~-0~-0~-0~-0~-0~-0~---|
G|-0-0-0~-0-0-0~--0~--0-0-0~-0-0-0~-0-0-0~-0~-0~-0~-0~-0~-0~-0~---|
C|-0-0-0~-0-0-0~--0~--0-0-0~-0-0-0~-0-0-0~-0~-0~-0~-0~-0~-0~-0~---| 
PM . . .  . . .   .   . . .  . . .  . . .  .  .  .  .  .  .  .

pre-chorus
D|----------------------------------------------------------------|
A|----------------------------------------------------------------|
F|----------------------------------------------------------------|
C|------5p0-3p0---------------------------5p0-3p0-----------------|
G|-1~-1---------5p0-3~h5p3p0---------3~-3---------5p0-3-0~-3~-5~--|
C|---------------------------0-3-5h0--------------------0~-3~-5~--|

D|--------------------------------------------------------------------|
A|--------------------------------------------------------------------|
F|----------------------------------------------------9*^10^9p7-------|
C|------5p0-3p0---------------------------5p0-3p0---------------10s12-|
G|-1~-1---------5p0-3~h5p3p0---------3~-3---------5p0-----------------|
C|---------------------------0-3-5h0----------------------------------|

chorus
D|----------------------------------------------------------------|
A|-------------------------------------6-6-6-5--------------------|
F|------------------5-5-5-5-5-5-5------5-5-5-5----5-5-5-5-5-7-7---|
C|-3~-3-5-5-5-3---3-3-3-3-3-3-3-3-----------------5-5-5-5-5-7-7---|
G|-1~-1-1-1-1-1---1-1-1-1-1-1-1-1-0~-0------------3-3-3-3-3-5-5---|
C|--------------------------------0~-0----------0-----------------|

D|----------------------------------------------------------------|
A|-------------------------------------6-6-6-5--------------------|
F|------------------5-5-5-5-5-5-5------5-5-5-5----5-5-5-5-5-7-7---|
C|-3~-3-5-5-5-3---3-3-3-3-3-3-3-3-----------------5-5-5-5-5-7-7---|
G|-1~-1-1-1-1-1---1-1-1-1-1-1-1-1-0~-0------------3-3-3-3-3-5-5---|
C|--------------------------------0~-0----------0-----------------|

D|----------------------------------------------------------------|
A|------------------------------------6-6-6-5-5-5-5-6-6-6-6/8-----|
F|------2h3p2-------------------------5-5-5-5-5-5-5-5-5-5-5/7-----|
C|------------3/5\3-2h3p2---2-------------------------------------|
G|-1~-1-------------------3--3-1-0~-0-----------------------------|
C|-------------------------------0~-0-----------------------------|

D|----------------------------------------------------------------|
A|------------------------------------6-6-6-5-5-5-5-6-6-6-6/8-----|
F|------2h3p2-------------------------5-5-5-5-5-5-5-5-5-5-5/7-----|
C|------------3/5\3-2h3p2---2-------------------------------------|
G|-1~-1-------------------3--3-1-0~-0-----------------------------|
C|-------------------------------0~-0-----------------------------|

outro
D|----------------------------------------------------------------|
A|----------------------------------------------------------------|
F|----------------------------------------------------------------|
C|----------------------------------------------------------------|
G|-3~h5p3p0--0-3-5-x-3-5-3-0-0-3-5-x------------------------------|
C|-----------0-3-5-x-3-5---0-0-3-5-x------------------------------|
PM                         . .

D|----------------------------------------------------------------|
A|----------------------------------------------------------------|
F|----------------------------------------------------------------|
C|-----------------------------7----------------------------------|
G|-3~h5p3p0--0-3-5-x-----7-------8--------------------------------|
C|-----------0-3-5-x-5/8---8-8------------------------------------|
PM                         . .

D|----------------------------------------------------------------|
A|----------------------------------------------------------------|
F|----------------------------------------------------------------|
C|----------------------------------------------------------------|
G|-3~h5p3p0--0-3-5-x-3-5-3-0-0-3-5-x------------------------------|
C|-----------0-3-5-x-3-5---0-0-3-5-x------------------------------|
PM                         . .

D|----------------------------------------------------------------|
A|----------------------------------------------------------------|
F|----------------------------------------------------------------|
C|-----------------------------7----------------------------------|
G|-3~h5p3p0--0-3-5-x-----7-------8--------------------------------|
C|-----------0-3-5-x-5/8---8-8------------------------------------|
PM                         . .

D|----------------------------------------------------------------|
A|----------------------------------------------------------------|
F|----------------------------------------------------------------|
C|----------------------------------------------------------------|
G|-3~h5p3p0--0-3-5-x-3-5-3-0-0-3-5-x------------------------------|
C|-----------0-3-5-x-3-5---0-0-3-5-x------------------------------|
PM                         . .

D|----------------------------------------------------------------|
A|----------------------------------------------------------------|
F|----------------------------------------------------------------|
C|-----------------------------7----------------------------------|
G|-3~h5p3p0--0-3-5-x-----7-------8--------------------------------|
C|-----------0-3-5-x-5/8---8-8------------------------------------|
PM                         . .

D|----------------------------------------------------------------|
A|----------------------------------------------------------------|
F|----------------------------------------------------------------|
C|----------------------------------------------------------------|
G|-3~h5p3p0--0-3-5-x-3-5-3-0-0-3-5-x------------------------------|
C|-----------0-3-5-x-3-5---0-0-3-5-x------------------------------|
PM                         . .

D|----------------------------------------------------------------|
A|----------------------------------------------------------------|
F|----------------------------------------------------------------|
C|----------------------------------------------------------------|
G|-3~h5p3p0--0-3-5------------------------------------------------|
C|-----------0-3-5------------------------------------------------|
Comments