Yardbirds - Mr Youre A Better Man Than I Chords & Tabs

 

Mr Youre A Better Man Than I Chords & Tabs

Yardbirds Chords & Tabs

Version: 1 Type: Bass Tab 0 ratings
1 star 2 stars 3 stars 4 stars 5 stars
comments

Mr Youre A Better Man Than I Bass Tab

   
Mr. You Are A Better Man Than I
The Yardbirds
Written by Brian Hugg and Mike Hugg; released as the B-side to "Shapes Of 
Things" and on the album "Having A Rave Up".

Intro:
G|------- ------- ------- -------|------- ------- ------- -------|
D|-------------------------------|-------------------------------|
A|-------------------------------|-------------------------------|
E|3------------------------------|5------------------------------|



G|------- ------- ------- -------|------- ------- ------- -------|
D|-------------------------------|-------------------------------|
A|-------------------------------|-------------------------------|
E|2------------------------------|2-----------2------------------|



G|------- ------- ------- -------|------- ------- ------- -------|
D|-------------------------------|-------------------------------|
A|-------------------------------|-------------------------------|
E|3------------------------------|5------------------------------|



G|------- ------- ------- -------|------- ------- ------- -------|
D|-------------------------------|-------------------------------|
A|-------------------------------|-------------------------------|
E|2-----------2------------------|2-----------2------------------|


Verse:
G|------- ------- ------- -------|------- ------- ------- -------|
D|------------------------2------|--------------------2---4---2--|
A|------------2-------5-------5--|0-----------4------------------|
E|3------------------------------|-------------------------------|
  Can you judge a man                                 by      the


G|------- ------- ------- -------|------- ------- ------- -------|
D|--------------------2-------4--|--------------------2-------4--|
A|------------4------------------|------------4------------------|
E|2------------------------------|2------------------------------|
  way he wears his hair?


G|------- ------- ------- -------|------- ------- ------- -------|
D|------------------------2------|--------------------2---4---2--|
A|------------2-------5-------5--|0-----------4------------------|
E|3------------------------------|-------------------------------|
  Can you read his mind                               by      the


G|------- ------- ------- -------|------- ------- ------- -------|
D|--------------------2-------4--|--------------------2-------4--|
A|------------4------------------|------------4------------------|
E|2------------------------------|2------------------------------|
  clothes that he wears?


G|------- ------- ------- -------|------- ------- ------- -------|
D|--------------------0---2------|--------------------2---4------|
A|------------2---------------2--|------------4---------------4--|
E|0------------------------------|2------------------------------|
  Can     you     see a       bad     man                 by  the


G|------- ------- ------- -------|------- ------- ------- -------|
D|------------------------2------|--------------------2---4---2--|
A|------------2-------5-------5--|0-----------4------------------|
E|3------------------------------|-------------------------------|
  pattern         on  his     tie?                    Well, then

Refrain:
G|----4-- ------- 4------ ----2--|------- ------- ------- -------|
D|-------------------------------|----4-----------4--------------|
A|2-----------2------------------|-------------------------------|
E|-------------------------------|2-----------2------------------|
  Mister, you're a better man than I,                 yeah,


G|----4-- ------- 4------ ----2--|------- ------- ------- -------|
D|-------------------------------|----4-----------4---4----------|
A|2-----------2------------------|-------------------------------|
E|-------------------------------|2-----------2------------------|
  Mister, you're a better man than I,                         Oh,


G|----4-- ------- 4---4-- ----2--|------- ------- ------- -------|
D|-------------------------------|----4---4-------4---4----------|
A|2-----------2------------------|----------------------------0--|
E|-------------------------------|2-----------2------------------|
  Mister, you're a better man than I,                 yeah,


G|----4-- 4------ 4---4-- ----2--|------- ------- ------- -------|
D|-------------------------------|----4---4-------4---4---4---4--|
A|2-----------2------------------|-------------------------------|
E|-------------------------------|2-----------2------------------|
  Mister, you're a better man than I.


G|------- ------- ------- -------|
D|4------------------------------|
A|-------------------------------|
E|2-----------2------------------|


Verse:
G|------- ------- ------- -------|------- ------- ------- -------|
D|-------------------------------|--------------------2---4---2--|
A|--------------------5---7---5--|0-----------4------------------|
E|3------------------------------|-------------------------------|
  Could   tell wise   man                             by      the
      you   a

G|------- ------- ------- -------|------- ------- ------- -------|
D|--------------------2-------4--|--------------------2-------4--|
A|------------4------------------|------------4------------------|
E|2------------------------------|2------------------------------|
  way he  speaks or   spells?


G|------- ------- ------- -------|------- ------- ------- -------|
D|------------------------2------|--------------------2---4---2--|
A|------------2-------5-------5--|0-----------4------------------|
E|3------------------------------|-------------------------------|
  Is  this    more important                          than    the


G|------- ------- ------- -------|------- ------- ------- -------|
D|--------------------2-------4--|--------------------2---4------|
A|------------4------------------|------------4------------------|
E|2------------------------------|2------------------------------|
  stories that tells?                                     And
            he

G|------- ------- ------- -------|------- ------- ------- -------|
D|--------------------0---2---0--|--------------------2---4------|
A|------------2------------------|------------4------------------|
E|0------------------------------|2------------------------------|
  call    a   man         a   fool                if  for


G|------- ------- ------- -------|------- ------- ------- -------|
D|------------------------2------|--------------------2---4---2--|
A|------------2-------5-------5--|0-----------4------------------|
E|3------------------------------|-------------------------------|
  wealth  he      doesn't     strive?                 Well, then

Refrain:
G|----4-- ------- 4---4-- ----2--|------- ------- ------- -------|
D|-------------------------------|----4-----------4---4-------4--|
A|2-----------2------------------|-------------------------------|
E|-------------------------------|2-----------2------------------|
  Mister, you're a better man than I,                 yeah,


G|----4-- ------- ----4-- ----2--|------- ------- ------- -------|
D|-------------------------------|----4---4-------4---4----------|
A|2---------------2--------------|-------------------------------|
E|-------------------------------|2-----------2------------------|
  Mister, you're a better man than I,                         Well,


G|----4-- 4------ 4------ 4------|------- ------- ------- -------|
D|-------------------------------|--------4-------4---4----------|
A|2-----------2------------------|-------------------------------|
E|-------------------------------|2------------------------------|
  Mister, you're a better man than I,                 yeah,
                                             (yeah)

G|----4-- ----4-- ------- 4------|------- ------- ------- -------|
D|-------------------------------|----4-----------4-----------4--|
A|2-------2----------------------|-------------------------------|
E|-------------------------------|2-----------2------------------|
  Mister, you're a better man than I.


G|------- ------- ------- -------|
D|--------4----------------------|
A|-------------------------------|
E|2-----------2------------------|

[ Tab from: http://www.guitartabs.cc/tabs/y/yardbirds/mr_youre_a_better_man_than_i_btab.html ]
Break (solo):
G|------- ------- ------- -------|------- ------- ------- -------|
D|-------------------------------|-------------------------------|
A|-------------------------------|-------------------------------|
E|2------------------------------|2-------2-------2---2---2---2--|



G|------- ------- ------- -------|------- ------- ------- -------|
D|-------------------------------|-------------------------------|
A|-------------------------------|-------------------------------|
E|2---2---2---2---2---2---2---2--|2-------2---2---2---2---2---2--|



G|------- ------- ------- -------|------- ------- ------- -------|
D|-------------------------------|-------------------------------|
A|-------------------------------|-------------------------------|
E|2-------2-------2---2---2---2--|2---2---2---2---2---2---2---2--|


                       (let the low F# notes ring during the solo)
G|------- ------- ------- -------|------- ------- ------- -------|
D|-------------------------------|----4---4-------4---4---4---4--|
A|-------------------------------|-------------------------------|
E|2-------2---2---2---2---2---2--|2-----------2------------------|



G|------- ------- ------- -------|------- ------- ------- -------|
D|4---4---4---4---4---4---4---4--|----4---4-------4---4---4---4--|
A|-------------------------------|-------------------------------|
E|-------------------------------|2-----------2------------------|



G|------- ------- ------- -------|------- ------- ------- -------|
D|----4-----------4---4---4---4--|--------4-------4---4-------4--|
A|-------------------------------|-------------------------------|
E|2------------------------------|2------------------------------|



G|------- ------- ------- -------|------- ------- ------- -------|
D|--------4-------4---4-------4--|--------4-------4---4-------4--|
A|-------------------------------|-------------------------------|
E|2---2-------2-----------2------|2-----------2-----------2------|



G|------- ------- ------- -------|------- ------- ------- -------|
D|----4---4-------4---4-------4--|----4-----------4-----------4--|
A|-------------------------------|-------------------------------|
E|2-----------2-----------2------|2-----------2-----------2------|



G|------- ------- ------- -------|------- ------- ------- -------|
D|----4-------4---4---4-------4--|----4---4-------4---4-------4--|
A|-------------------------------|-------------------------------|
E|2-----------------------2------|2-----------2------------------|



G|------- ------- ------- -------|------- ------- ------- -------|
D|----4-----------4-----------4--|----4-----------4-------4------|
A|-------------------------------|-------------------------------|
E|2-----------2-----------2------|2-----------2------------------|



G|------- ------- ------- -------|------- ------- ------- -------|
D|----4---4-------4---4-------4--|----4---4-----------4-------4--|
A|-------------------------------|-------------------------------|
E|2------------------------------|2---------------2-------2------|



G|------- ------- ------- -------|------- ------- ------- -------|
D|----4-----------4-------4---4--|-------------------------------|
A|-------------------------------|-------------------------------|
E|2-----------2------------------|2-------2---2---2---2---2---2--|



G|------- ------- ------- -------|------- ------- ------- -------|
D|-------------------------------|-------------------------------|
A|-------------------------------|-------------------------------|
E|2-------2---2---2---2---2---2--|2---2---2---2---2---2---2---2--|



G|------- ------- ------- -------|------- ------- ------- -------|
D|-------------------------------|------------------------4------|
A|-------------------------------|-------------------------------|
E|2---2---2---2---2---2---2---2--|2---2---2---2---2---2----------|
                                                              Can

Verse:
G|------- ------- ------- -------|------- ------- ------- -------|
D|------------------------2------|--------------------2---4---2--|
A|------------2-------5-------5--|0-----------4------------------|
E|3------------------------------|-------------------------------|
  you condemn a man                                   if  your


G|------- ------- ------- -------|------- ------- ------- -------|
D|--------------------2-------4--|--------------------2-------4--|
A|------------4------------------|------------4------------------|
E|2------------------------------|2------------------------------|
  faith he    hold?                                       Say the
          doesn't

G|------- ------- ------- -------|------- ------- ------- -------|
D|------------------------2------|--------------------2---4---2--|
A|------------2-------5-------5--|0-----------4------------------|
E|3------------------------------|-------------------------------|
  colour of his skin                                  is      the


G|------- ------- ------- -------|------- ------- ------- -------|
D|--------------------2-------4--|--------------------2-------4--|
A|------------4------------------|------------4------------------|
E|2------------------------------|2------------------------------|
  colour of his   soul?


G|------- ------- ------- -------|------- ------- ------- -------|
D|--------------------0---2------|--------------------2---4------|
A|------------2---------------2--|------------4---------------4--|
E|0------------------------------|2------------------------------|
  Could   you     say     that men,           for     king and


G|------- ------- ------- -------|------- ------- ------- -------|
D|------------------------2------|--------------------2---4---2--|
A|------------2-------5-------5--|0-----------4------------------|
E|3------------------------------|-------------------------------|
  country,        all must    die?                            Well,

Refrain:
G|----4-- ------- 4---4-- ----2--|------- ------- ------- -------|
D|-------------------------------|----4---4-----------4----------|
A|2-----------2------------------|-------------------------------|
E|-------------------------------|2---------------2--------------|
  Mister, you're a better man than I,         yeah,


G|----4-- ------- 4---4-- -------|------- ------- ------- -------|
D|-------------------------------|----4---4-------4---4-------4--|
A|2-----------2------------------|-------------------------------|
E|-------------------------------|2------------------------------|
  Mister, you're a better man than I,                         Well,


G|----4-- 4------ 4---4-- ----2--|------- ------- ------- ----2-/|
D|-------------------------------|----4---4-------4---4----------|
A|2-----------------------2------|-------------------------------|
E|-------------------------------|2-----------2------------------|
  Mister, you're a better man than I,         yeah,


G|4------ 4------ 4---4-- -------|------- ------- ------- -------|
D|-------------------------------|----4---4-------4---4-------4--|
A|-------------------------------|-------------------------------|
E|-------------------------------|2-----------2------------------|
  Mister, you're a better man than I.


G|------- ------- ------- -------|------- ------- ------- -------|
D|----4-----------4---4-------4--|--------4-------4---4-------4--|
A|-------------------------------|-------------------------------|
E|2-----------2------------------|2-----------2-----------2------|


Outro:
G|------- ------- ------- -------|------- ------- ------- -------|
D|--------4-------4---4---4---4--|----4---4-------4---4-------4--|
A|-------------------------------|-------------------------------|
E|2-----------2------------------|2-----------2-----------2------|



G|------- ------- ------- -------|------- ------- ------- -------|
D|----4---4-------4---4-------4--|----4---4-------4---4-------4--|
A|-------------------------------|-------------------------------|
E|2-----------2-----------2------|2-----------2------------------|



G|------- ------- ------- -------|------- ------- ------- -------|
D|4-------4-------4---4-------4--|4-------4-------4---4-------4--|
A|-------------------------------|-------------------------------|
E|-------------------------------|2-----------------------2------|



G|------- ------- ------- -------|------- ------- ------- -------|
D|4------------------------------|-------------------------------|
A|-------------------------------|-------------------------------|
E|2------------------------------|-------------------------------|

Please e-mail me for any corrections, or write a comment.
Comments