Yardbirds - Heart Full Of Soul Chords & Tabs

 

Heart Full Of Soul Chords & Tabs

Yardbirds Chords & Tabs

Version: 2 Type: Tab 0 ratings
1 star 2 stars 3 stars 4 stars 5 stars
comments

Heart Full Of Soul Tab

   
-----------------------------------------------------------------------------
                  Heart Full Of Soul Tab by The Yardbirds
-----------------------------------------------------------------------------

Tabbed By: Alex Miller
Email Address: Ram13093@aol.com

Tuning: Standard

e|---------------------|
B|---------------------|
G|---------------------|
D|-------15h17p15------|
A|-17-17----------17~--|
E|---------------------|
[ Tab from: http://www.guitartabs.cc/tabs/y/yardbirds/heart_full_of_soul_tab_ver_2.html ]
e|------------------------|
B|-------------------15~--|
G|----------------17------|
D|-------15h17-19---------|
A|-17-17------------------|
E|------------------------|

e|---------------------|
B|---------------------|
D|-------15h17p15------|
A|-17-17----------17~--|
E|---------------------|

e|-------------------------|
B|-------------------------|
G|-------------------------|
D|-------15h17p15-17b-17b--|
A|-15/17-------------------|
E|-------------------------|


Symbols:
h=hammer on
p=pull off
b=bend
/=slide up
~=vibrato

=============================================================================
Comments