Yardbirds - For Your Love Chords & Tabs

 

For Your Love Chords & Tabs

Yardbirds Chords & Tabs

Version: 2 Type: Tab 0 ratings
1 star 2 stars 3 stars 4 stars 5 stars
comments

For Your Love Tab

   
Very simple song, really.

Intro/Verse Chords

Em   G   A   Am

These chords are repeated over and over again.

[ Tab from: http://www.guitartabs.cc/tabs/y/yardbirds/for_your_love_tab_ver_2.html ]
E-----------------------------------------------------|
B-----------------------------------------------------|
G---------------1-1-----------------------------------|
D------1-1--4-4---------------------------------------|
A--2-2------------------------------------------------|
E-----------------------------------------------------|

E-----------------------------------------------------|
B-----------------------------------------------------|
G-----------------------------------------------------|
D-----------2-2--4-4----------------------------------|
A--0-0--4-4-------------------------------------------|
E-----------------------------------------------------|

That's the whole song, just listen to the track to know the order.
Comments