Yankovic Weird Al - Smells Like Nirvana Chords & Tabs

 

Smells Like Nirvana Chords & Tabs

Yankovic Weird Al Chords & Tabs

Version: 1 Type: Tab 0 ratings
1 star 2 stars 3 stars 4 stars 5 stars
comments

Smells Like Nirvana Tab

#----------------------------------PLEASE NOTE--------------------------------#
#This file is the author's own work and represents their interpretation of the#
#song. You may only use this file for private study, scholarship, or research.#
#-----------------------------------------------------------------------------#
#-- File created with Instab - http://www.pconline.com/~smcarey/instab.html --#
#-----------------------------------------------------------------------------#

Author/Artist: Weird Al Yankovich
Title: Smells like Nirvana
Transcribed by: Chris Aylward
Email: Homeboy_105@hotmail.com

this song is similar to smells liike teen spirit.


Repeat the 1's through the verses get the timeing from the song

LYRICS:

What is this song, all about?
Can't figure any lyric out
How do the words to it go
I wish you'd tell, I don't know

Don't know, don't know, don't know, oh no
Don't know, don't know, don't know, oh no

Now I'm mumbling, and I'm screaming 
And I don't know, what I'm singing
Crank the volume, ears are bleeding 
I still  don't know, what I'm singin
were so loud and incoherant
boy this ought to, bug yourr parents, yeah!

This song intends to lead you all
If just, I'd get it through my skull
It's hard to barf with *MUMBLES* 
With all these marbles in my mouth

Don't know, don't know, don't know, oh no
Don't know, don't know, don't know, oh no

Well we don't sell, like Madonna
Here we are now, whe're Nirvana
Sing distincly: 'Whe don't wanna'
Buy our album, whe're Nirvana
A garage-band, from Seattle
boy this sure beats raising cattle

*GARGLES THE SOLO WHITH WATER*

And I forgot the next verse
So well, I guess it pays to reherse
The lyrics sheets, so hard to find
What are the words, awh, Nevermind

Don't know, don't know, don't know, oh no
Don't know, don't know, don't know, oh no
[ Tab from: http://www.guitartabs.cc/tabs/y/yankovic_weird_al/smells_like_nirvana_tab.html ]
Well I'm getting, and whe're playing
But I don't know, what I'm singing
What's the message, that I'm conveing?
Can you tell me, what I'm saying?

So if you've got, some idea
Didn't think so, well I'll see ya'

Sayonara, sayonara, sayonara, sayonara!

------------------------------------------------------------------------------
------------------------------------------------------------------------------
---------------3-3-x-x--------------------6-6-6-------------------------------
-3-3-3-x-x-x-x-3-3-x-x------6-6-6-x-x-x-x-6-6-6-------------------------------
-3-3-3-x-x-x-x-1-1-x-x------6-6-6-x-x-x-x-4-4-4-------------------------------
-1-1-1-x-x-x-x-----x-x------4-4-4-x-x-x-x-------------------------------------
                                                                              

------------------------------------------------------------------------------
----------------------------------------------------------------------------1-
------------------------------------------------------------------------------
-3--4--3-7--5--3--4-----------------------------------------------------------
-3--4--3-7--5--1--2-----------------------------------------------------------
-1--2--1-5--3--1--2-----------------------------------------------------------
                                                                              

---1------------------1----------------1-----------------1--------------------
-1------------------1----------------1-----------------1----------------------
------------------------------------------------------------------------------
------------------------------------------------------------------------------
------------------------------------------------------------------------------
------------------------------------------------------------------------------
                                                                              

Comments