Yael Naim - New Soul Chords & Tabs

 

Yael Naim Chords & Tabs

Version: 3 Type: Tab 0 ratings
1 star 2 stars 3 stars 4 stars 5 stars
comments

New Soul Tab

-------------------------------------------------------------------------------
			     New Soul - Yael Naim
-------------------------------------------------------------------------------
Tabbed by: Keegan
Email:

this is a verson by wastedfishstix. I liked it and wanted to learn it but he never 
a tab, so i took the time and learned it and made a tab for all of you.

the video is here:
http://www.youtube.com/watch?v=NewuyavSKng
[ Tab from: http://www.guitartabs.cc/tabs/y/yael_naim/new_soul_tab_ver_3.html ]
It is not perfect but it is how i was able to do it. I like how it adds the bass line to 
song. Also, i thought it was kind of hard to use my index finger for the bass line so i 
my thumb. Use what ever works the best for you. watch the video for more help.

Tuning: Drop the E to C
	CADGBE

e|------------------------5----------5--------------------7------|
B|---8-----------8--------6----------6----------5---------9------|
G|---9-----------9--------5----------5----------5---------7------|
D|---10---------10------------------------------7----------------|
A|------------------------------------------0--------0-----------|
C|-0-----7--12-------7--5-----5--0--------7------------7------12-|

Repeat
Comments