Y And T - Rescue Me Chords & Tabs

 

Rescue Me Chords & Tabs

Y And T Chords & Tabs

Version: 2 Type: Tab 0 ratings
1 star 2 stars 3 stars 4 stars 5 stars
comments

Rescue Me Tab

Y & T (Yesterday & Today) - Rescue Me

e------------------------------------------------------------------------------
B--------0-------0-------------5-------5------------0-------0------------------
G------5---5---5---5---------4---4---4---4--------5---5---5---5----------------
D----7-------7-------------5-------5------------4-------4----------------------
A------------------------------------------------------------------------------
E------------------------------------------------------------------------------

[ Tab from: http://www.guitartabs.cc/tabs/y/y_and_t/rescue_me_tab_ver_2.html ]
e------------------------------------------------------------------------------
B--------0-------1--0----------------------------------------------------------
G------2---2---1---------------------------------------------------------------
D----3-------2-----------------------------------------------------------------
A------------------------------------------------------------------------------
E------------------------------------------------------------------------------

REPEAT UNTIL SINGER (DAVE MENIKETTI) SAYS "I WANT YOU TO RESCUE ME" THEN PLAY
THIS PART:    ~=VIBRATO    BEGINNING IS ALSO THE END!!!
e------------------------------------------------------------------------------
B------------------------------------------------------------------------------
G------------------------------------------------------------------------------
D--------------------------------------7-5-------------------------------------
A--------7-7-7-7-7-7----5-5-5-5-5-5----5-3-------------------------------------
E---0----5-5-0-5-0-5----3-3-0-3-0-3--------0----5---3---2---1---0--------------

REPEAT THE : 5---3---2---1---0  PART UNTIL DAVE SINGS "I WANT YOU TO RESCUE ME"
AGAIN THEN PLAY THE ^^^^^^^^^^^ PARTS POINTED AS WELL AS THE 7-5-0'S B4 IT

 I DONT KNOW THE SOLO YET I WILL SOON BUT PRACTICE THIS AND REMEMBER THE END OF
THE SONG IS ALSO THE BEGINNING EXCEPT YOU PLAY IT SLOWER AND ONLY ONE TIME

THANK-YOU----DAVID OVIEDA
Comments