Xzibit - X Chords & Tabs

 

X Chords & Tabs

Xzibit Chords & Tabs

Version: 1 Type: Chords 1 rating
1 star 2 stars 3 stars 4 stars 5 stars
comments

X Chords

   
        Am       Em         Dm         C            G
E|----0----  ----0----  ----1----  ----0----  ----3----
B|----1----  ----0----  ----3----  ----1----  ----3----
G|----2----  ----0----  ----2----  ----0----  ----0----
D|----2----  ----2----  ----0----  ----2----  ----0----
A|----0----  ----2----  ----x----  ----3----  ----2----
E|----x----  ----0----  ----x----  ----x----  ----3----

Iv’e put the chords in to help with beat

Am , Am , Am , Am , Em , Am

Am , Am , Am , Em , Am
[ Tab from: http://www.guitartabs.cc/tabs/x/xzibit/x_crd.html ]
Am , Am , Am , Em

Dm , C , G , C , G           straight back into Am

Am , Am , Am , Am , Em , Am

Am , Am , Am , Em , Am

Am , Am , Am , Em

Dm , C , G , C , G           straight back into Am

This tab below is for the  Dm , C , G , C , G  part


E|---1---0--------------------0---
B|---3---1--------------------1---
G|---2---0--------------------2---
D|---0---2--------------------2---
A|---x---3---2---3---2-------0---
E|---x---x-----------------3---x---
Comments