Xzibit - X Chords & Tabs

 

X Chords & Tabs

Xzibit Chords & Tabs

Version: 5 Type: Bass Tab 0 ratings
1 star 2 stars 3 stars 4 stars 5 stars
comments

X Bass Tab

Tabbed by Ian!!!!WOOOO!!!!!

Gangster?

Verse:

G|----------------------------------------------------------------------|
D|----------------------------------------------------------------------|
A|----------------------------------------------------------------------|
E|---5--5--5--5--0--5--5--5--5--0--5--5--5--5--0--5--5--5--5--0---------|
[ Tab from: http://www.guitartabs.cc/tabs/x/xzibit/x_btab_ver_5.html ]
G|----------------------------------------------------------------------|
D|----------------------------------------------------------------------|
A|--7--5-----5----------------------------------------------------------|
E|--------8-----8--7--5-------------------------------------------------|

G|----------------------------------------------------------------------|
D|----------------------------------------------------------------------|
A|----------------------------------------------------------------------|
E|---5--5--5--5--0--5--5--5--5--0--5--5--5--5--0--5--5--5--5--0---------|

G|----------------------------------------------------------------------|
D|----------------------------------------------------------------------|
A|--7--5-----5----------------------------------------------------------|
E|--------8-----8--7--5-------------------------------------------------|
Comments