Xxl - Fran Chords & Tabs

 

Fran Chords & Tabs

Xxl Chords & Tabs

Version: 1 Type: Tab 0 ratings
1 star 2 stars 3 stars 4 stars 5 stars
comments

Fran Tab

URL: www.xxl.es
XXL - Fran
Tabbed by: Xavieres
Tuning: Drop Eb


Verse: x20
|------------|
|------------|
|----4-6-----|
|---------4--|
|-2----------|
|------------|

Chorus 1: x2
|--------------------------------------------------------|
|--------------------------------------------------------|
|-4-6---4-6---------9-9-9-9-9-4-6---4-6--------2-2-2-2-2-|
|-4-6---4-6---4-----9-9-9-9-9-4-6---4-6---4----2-2-2-2-2-|
|-2-4---2-4---4-----7-7-7-7-7-2-4---2-4---4----0-0-0-0-0-|
|-------------2---------------------------2--------------|


Chorus 2:
|------------|-------------------------------------|
|------------|-------------------------------------|
|2-2-2-2-2-2-|-9-9-9-9-9-9-------------------------|
|2-2-2-2-2-2-|-9-9-9-9-9-9-9-9-9-9-9-9-7-7-7-7-7-7-|
|0-0-0-0-0-0-|-7-7-7-7-7-7-9-9-9-9-9-9-7-7-7-7-7-7-|
|------------|-------------7-7-7-7-7-7-5-5-5-5-5-5-|
             |__________________x4_________________|


Verse: x8
|------------|
|------------|
|----5-7--0--|
|------------|
|-3----------|
|------------|


Chorus 1: x2
|--------------------------------------------------------|
|--------------------------------------------------------|
|-4-6---4-6---------9-9-9-9-9-4-6---4-6--------2-2-2-2-2-|
|-4-6---4-6---4-----9-9-9-9-9-4-6---4-6---4----2-2-2-2-2-|
|-2-4---2-4---4-----7-7-7-7-7-2-4---2-4---4----0-0-0-0-0-|
|-------------2---------------------------2--------------|

[ Tab from: http://www.guitartabs.cc/tabs/x/xxl/fran_tab.html ]
Verse 2: x4
|------------------|
|------------------|
|-4-6--6-6-x-4-x-6-|
|-4-6--6-6-x-4-x-6-|
|-2-4--4-4-x-2-x-4-|
|------------------|


Chorus 2: 
|---------------------|-------------------------------------|
|---------------------|-------------------------------------|
|4--6-6-6-6-2-2-2-2-2-|-9-9-9-9-9-9-------------------------|
|4--6-6-6-6-2-2-2-2-2-|-9-9-9-9-9-9-9-9-9-9-9-9-7-7-7-7-7-7-|
|2--4-4-4-4-0-0-0-0-0-|-7-7-7-7-7-7-9-9-9-9-9-9-7-7-7-7-7-7-|
|---------------------|-------------7-7-7-7-7-7-5-5-5-5-5-5-|
                      |__________________x4_________________|


Verse 3:
|----------------|
|----------------|
|----------------|
|----------------|
|-2-4--4-x-2-x-4-|
|----------------|


Verse 4:
|------------------------------------------------------------------|
|------------------------------------------------------------------|
|------------------------------------------------------------------|
|-----------------------5-7--7-7-9--9-9-11-11-9-11-11-9-11-11-9-11-|
|-2-4--4-5-7--7-8-10-10--------------------------------------------|
|------------------------------------------------------------------|


Chorus 2:
|------------|-------------------------------------|
|------------|-------------------------------------|
|2-2-2-2-2-2-|-9-9-9-9-9-9-------------------------|
|2-2-2-2-2-2-|-9-9-9-9-9-9-9-9-9-9-9-9-7-7-7-7-7-7-|
|0-0-0-0-0-0-|-7-7-7-7-7-7-9-9-9-9-9-9-7-7-7-7-7-7-|
|------------|-------------7-7-7-7-7-7-5-5-5-5-5-5-|
             |__________________x4_________________|
Comments