Xutos E Pontapes - O Homem Do Leme Chords & Tabs

 

O Homem Do Leme Chords & Tabs

Xutos E Pontapes Chords & Tabs

Version: 3 Type: Chords 1 rating
1 star 2 stars 3 stars 4 stars 5 stars
comments

O Homem Do Leme Chords

   
Xutos & Pontapés
O Homem do Leme
by António Reis



|-------0---------------0--0---------|
|-------1---1---1---1---1--1-1-------|
|-----------2---0---0--------0-------|
|------------------------------------|
|-----0-------3-------3------3-------|
|---------0-------0------0-----3-4---|



|-----12-12-12-13---------------------------------------------------------|
|-----------------12-12-12-13-15-15-15-13-13-12-12-10-10----10------------|
|--------------------------------------------------------12----12-12------|
|-------------------------------------------------------------------------|
|-------------------------------------------------------------------------|
|-------------------------------------------------------------------------|

|-----12-12-12-13------------------------------------------------------------------|
|-----------------12-12-12-13-15-15-15-13-13-12-12-10-10----------------10---------|
|--------------------------------------------------------12-12-10-10-10----10-9----|
|----------------------------------------------------------------------------------|
|----------------------------------------------------------------------------------|
|----------------------------------------------------------------------------------|

      Am         Em   
        Sozinho na noite
        
       F               G
        Um barco ruma, para onde vai

      Am           Em  
        Uma luz no escuro

      F                    G
        Brilha a direito, ofusca as demais


          Am                      Em             
        E mais que uma onda, mais que uma maré,

           F                   G
        Tentaram prendê-los, impor-lhe uma fé,
               Am                  Em
        Mas, movendo a vontade, rompendo a saudade,

            F                        G            C
        Vai quem já nada teme, vai o homem do leme


       F                    Am
         E uma vontade de rir,

       Em                      C
         Nasce do fundo do ser,

       F                  Am
         E uma vontade de ir,

                             Em
         Correr o mundo e partir

                              Am
         A vida é sempre a perder
         
[ Tab from: http://www.guitartabs.cc/tabs/x/xutos_e_pontapes/o_homem_do_leme_crd_ver_3.html ]
|-----12-12-12-13---------------------------------------------|
|-----------------12-12-12-13-15-15-15-13-13-12-12-10---------|
|-----------------------------------------------------12-12---|
|-------------------------------------------------------------|
|-------------------------------------------------------------|
|-------------------------------------------------------------|

|-----12-12-12----------------------------------------------------------------------|
|--------------15-12-12-12-13-15-15-15-13-13-12-12-10-10----------------------------|
|--------------------------------------------------------12-12-10-10-9-9------------|
|------------------------------------------------------------------------12-10-12---|
|-----------------------------------------------------------------------------------|
|-----------------------------------------------------------------------------------|


       No fundo do mar,
       Jazem os outros, os que la ficaram.
       Em dias cinzentos,
       Descanso eterno, lá encontraram.

       E mais que uma onda, mais que uma maré
       Tentaram prendê-lo, impôr-lhe uma fé
       Mas, movendo a vontade, rompendo a saudade,
       Vai kem ja nada teme, vai o homem do leme.

       E uma vontade de rir
       Nasce do fundo do ser
       E uma vontade de ir,
       Correr o mundo e partir
       A vida é sempre a perder.

|-----12-12-12-13----------------------------------------------------------------|
|-----------------12-12-12-13-15-15-15-13-13-12-12-10-10-------------------------|
|--------------------------------------------------------12-12-10-10-9-9---------|
|------------------------------------------------------------------------12-10---|
|--------------------------------------------------------------------------------|
|--------------------------------------------------------------------------------|


|---12-12-12-13-------------15-15-15-13-13-12-12---------------------------------|
|---------------12-12-12-13----------------------15-15-13-13-12-12-10-10---------|
|------------------------------------------------------------------------12-9----|
|--------------------------------------------------------------------------------|
|--------------------------------------------------------------------------------|
|--------------------------------------------------------------------------------|



       No fundo do horizonte,
       Sopra um ´murmúrio, para onde vai.
       No fundo do tempo,
       Foge um futuro, é tarde demais!

       E uma vontade de rir,
       Nasce do fundo do ser.
       E uma vontade de ir,
       Correr o mundo e partir
       
      Em                    C
       A vida é sempre a perder

     F                    Am            
       E uma vontade de rir

     Em                    C       Am    Em    Am
       Nasce do fundo do seeeeeeeer


                                        Xutos & pontapés - Tim
                                        by António Reis







Comments