Xutos E Pontapes - Cigarette Chords & Tabs

 

Cigarette Chords & Tabs

Xutos E Pontapes Chords & Tabs

Version: 1 Type: Tab 1 rating
1 star 2 stars 3 stars 4 stars 5 stars
comments

Cigarette Tab

   
Xutos & Pontapés
Cigarette (Aquilo que eu quero mesmo és tu)
Tabbed by: Eduardo Ventura




This song is performed mainly in PowerChords (at least the guitar part)...
And it's pretty simple, it evolves around a very basic progression D G C A, where during the
choruses it rises to an Eb, returning to an A passing through a quick Bb, finally returning to
the basic progression...

This looks like a crazy talk... Lets get to the TAB:

Basic Progression

     D      G      C      A
e|-------------------------------|
B|-------------------------------|
G|---7-7-----------5-5-----------|
D|---7-7----5-5----5-5----7-7----|   Repeats untill...
A|---5-5----5-5----3-3----7-7----|
E|----------3-3-----------5-5----|


...Chorus

     Eb        A      Bb
e|------------------------|
B|------------------------|
G|---9-9-9-9---7-7-7--3---|
D|---9-9-9-9---7-7-7--3---|   Quicly followed by the basic progression, i.e...
A|---7-7-7-7---5-5-5--2---|
E|------------------------|



     Eb           A      Bb  D      G      C      A
e|-------------------------------------------------------|
B|-------------------------------------------------------|
G|---9--9--9--9---7-7--7--3--7-7-----------5-5-----------|
D|---9--9--9--9---7-7--7--3--7-7----5-5----5-5----7-7----|
A|---7--7--7--7---5-5--5--2--5-5----5-5----3-3----7-7----|
E|----------------------------------3-3-----------5-5----|


The song with lyrics goes something like this:

(Drums)
(Drums + Bass)
[ Tab from: http://www.guitartabs.cc/tabs/x/xutos_e_pontapes/cigarette_tab.html ]
D     G      C    A 
Sinto-me tão baralhado
    D    G     C         A    (Guitar enters)
Que fico neste triste estado
   D      G     C         A 
Eu já não sei o que está certo
D      G        C         A 
Já nem sei se é longe ou perto
D      G      C    A 
Já não sei se ando torto
D         G      C         A 
Se estou vivo ou se estou morto
Eb                D       Bb     D G C A
Aquilo que eu preciso mesmo és tu
Eb                D       Bb     D
Aquilo que eu preciso és mesmo tu 

(Drums)
(Bass and Guitar enters)

D G C A

D      G       C     A
Casas, carros, mordomias
D       G       C       A
Barcos, bolsa e mais valias
D    G     C      A
Nada disso me faz falta
   D       G   C    A
Eu quero a tua maré alta
Eb                D       Bb     D G C A
Aquilo que eu preciso mesmo és tu
Eb                D       Bb     D G C A
Aquilo que eu preciso és mesmo tu

(Drums)
(Bass and Guitar enters)

D G C A

Eu já sei
D      G       C        A
Sim já sei bem o que eu quero
D      G       C        A
Sim já sei bem por quem espero
D      G       C        A
Sim já sei bem o que eu quero
D      G       C        A
Sim já sei bem por quem espero
D G C          A
    Sei que és tu
D G C          A
   Sei que és mesmo tu
D G C          A
   Sei que és mesmo tu
D G C          A
   Sei que és mesmo tu
Eb                D       Bb D 
Aquilo que eu quero mesmo és tu



Nothing could be more easy...




***************************

Any doubts or corrections, please e-mail me at epv@net.sapo.pt! 

Untill the next one by Xutos...

Eduardo Ventura
****************************
Comments