Xutos E Pontap S - Negras Como A Noite Chords & Tabs

 

Negras Como A Noite Chords & Tabs

Xutos E Pontap S Chords & Tabs

Version: 1 Type: Tab 0 ratings
1 star 2 stars 3 stars 4 stars 5 stars
comments

Negras Como A Noite Tab

   

Xutos e Pontapés - Negras Como A Noite



   Bm  G E
e|-2-2-3--------------------------|
B|-3-3-3---3-5--------------------|
G|-4-4-4-1------------------------|
D|-------2------------------------|
A|-2-2---2------------------------|
E|-----3-0------------------------|

   Bm	  G      E      G
e|----2------3------0------3------|
B|---3-3----0-0----0-0----0-0-----|
G|--4---4--0---0--1---1--0---0----|
D|--------------------------------|
A|-2------------------------------|
E|--------3------0------3---------|



Bm          G
Com mãos de veludo
E           G
Negras como a Noite
Bm          G
Tu deste-me tudo
E       G
E eu parti...

(solo)
e|--------------------------------|
B|-5~-~3-5~~-6~3~-5-5~-~6-3-------|
G|--------------------------------|x2
D|--------------------------------|
A|--------------------------------|
E|--------------------------------|


Um homem trabalha
Do outro lado do rio
Com as suas duas mãos 
Repara um navio

[ Tab from: http://www.guitartabs.cc/tabs/x/xutos_e_pontap_s/negras_como_a_noite_tab.html ]
Está sozinho e triste 
Mas tem que aguentar
Já falta tão pouco
Para poder Voltar



A
Vai ficar tudo Bem
E
Isso eu sei...
A
Vai ficar tudo Bem
E
Isso eu sei...

F#m          G            D
Quando o Sol se juntar ao mar
F#m       G         D
e eu te voltar a beijar

B           D
Só mais uma vez
B           D
Só mais uma vez
B
Só mais uma
             D
Só mais esta vez

(solo)
e|--------------------------------|
B|-5~-~3-5~~-6~3~-5-5~-~6-3-------|
G|--------------------------------|x2
D|--------------------------------|
A|--------------------------------|
E|--------------------------------|


Um adeus começa 
Outro dia igual
Ficou a promessa
Escondida no lençol


Negras como a noite 
Vindas de outra terra
As mãos de veludo
Estão à sua espera 


Vai ficar tudo Bem
Isso eu sei...
Vai ficar tudo Bem
Isso eu sei...

Quando o Sol se juntar ao mar
e eu te voltar a beijar

Só mais uma vez
Só mais uma vez
Só mais uma
Só mais esta vez

solo


tabbed by Claudio Quina
questions email-me to claudioquina@hotmail.com
Comments