Xtreme Playaz - Unamed 4 The Time Being Chords & Tabs

 

Unamed 4 The Time Being Chords & Tabs

Xtreme Playaz Chords & Tabs

Version: 1 Type: Tab 0 ratings
1 star 2 stars 3 stars 4 stars 5 stars
comments

Unamed 4 The Time Being Tab

Intro
(Bass on)
--------------------------------------------
--------------------------------------------
--------------------------------------------
0-------------0-------------0-------------00


Verse (take bass off)
--------------------------------------------
--------------------------------------------
--------------------------------------------
----0-0-3-5-0-0-3-5-0-0-3-5-0-0-3-5-0-0-3-5-

--------------------------------------------
--------------------------------------------
----3333-5555-------------------------------
--------------------------------------------

--------------------------------------------
--------------------------------------------
--------------------------------------------
----0-0-3-5-0-0-3-5-0-0-3-5-0-0-3-5-0-0-3-5-

--------------------------------------------
--------------------------------------------
----3333-5555-------------------------------
--------------------------------------------

--------------------------------------------
--------------------------------------------
--------------------------------------------
----0-0-3-5-0-0-3-5-0-0-3-5-----------------

--------------------------------------------
--------------------------------------------
----3333-55555555---------------------------
--------------------------------------------

Chorus

--------------------------------------------
--------------------------------------------
--------------------------------------------
1/-7777-5555-9999-7777-5555-9999-7777-5555-7

Verse 
--------------------------------------------
--------------------------------------------
--------------------------------------------
----0-0-3-5-0-0-3-5-0-0-3-5-0-0-3-5-0-0-3-5-

--------------------------------------------
--------------------------------------------
----3333-5555-------------------------------
--------------------------------------------
[ Tab from: http://www.guitartabs.cc/tabs/x/xtreme_playaz/unamed_4_the_time_being_tab.html ]
--------------------------------------------
--------------------------------------------
--------------------------------------------
----0-0-3-5-0-0-3-5-0-0-3-5-0-0-3-5-0-0-3-5-

--------------------------------------------
--------------------------------------------
----3333-5555-------------------------------
--------------------------------------------

--------------------------------------------
--------------------------------------------
--------------------------------------------
----0-0-3-5-0-0-3-5-0-0-3-5-----------------

--------------------------------------------
--------------------------------------------
----3333-55555555---------------------------
--------------------------------------------

Chorus

--------------------------------------------
--------------------------------------------
--------------------------------------------
1/-7777-5555-9999-7777-5555-9999-7777-5555-7

guitar puts a solo in here
--------------------------------------------
--------------------------------------------
--------------------------------------------
7---------7---------7------7-7-7-7----------

outro
--------------------------------------------
--------------------------------------------
--------------------------------------------
----0-0-3-5-0-0-3-5-0-0-3-5-0-0-3-5-0-0-3-5-

--------------------------------------------
--------------------------------------------
----3333-5555-------------------------------
--------------------------------------------

--------------------------------------------
--------------------------------------------
--------------------------------------------
----0-0-3-5-0-0-3-5-0-0-3-5-0-0-3-5-0-0-3-5-

--------------------------------------------
--------------------------------------------
----3333-5555-------------------------------
--------------------------------------------

--------------------------------------------
--------------------------------------------
--------------------------------------------
----0-0-3-5-0-0-3-5-0-0-3-5//--5----------

This is my bands song that i wrote and this is also the first tab i've
done  hope you like it.
Comments