Xtc - Living Through Another Cuba Chords & Tabs

 

Living Through Another Cuba Chords & Tabs

Xtc Chords & Tabs

Version: 1 Type: Tab 0 ratings
1 star 2 stars 3 stars 4 stars 5 stars
comments

Living Through Another Cuba Tab

   
LIVING THROUGH ANOTHER CUBA by XTC

Written by Andy Partridge
From the album 'Black Sea'


 Intro and middle bit:

-------------------------------------|--
-------------------------------------|--
----------1-1h3-1--------------------|--
------2-4---------4-2-1-2-2/4-1------|--
--0-4---------------------------2----|--
-------------------------------------|--

  Main Riff:
[ Tab from: http://www.guitartabs.cc/tabs/x/xtc/living_through_another_cuba_tab.html ]
----------------------------|--
--9-9-9-9---9-9-9-10-11(12)-|--
-11-9-9-9--11-9-9--9--9--9--|--
--9-9-9-9---9-9-9--9--9--9--|--
-------11-------------------|--
----------------------------|--

 Verse:

 C#5     F#5  B5      E5
---------------------------|--
---------------------------|--
-6--6-6-------4--4-4-------|--
-6--6-6--4----4--4-4--2----|--
-4--4-4--4----2--2-2--2----|--
---------2------------0----|--

 Riff towards the end:

--------------      -----------------
--------------      -----------------
-------------- (x3) -----------------
--------2-2---      -0000000000000---
--------0-0-2-      ---------------2-
--0--2--------      -----------------
Comments