Xtc - Generals And Majors Chords & Tabs

 

Generals And Majors Chords & Tabs

Xtc Chords & Tabs

Version: 1 Type: Bass Tab 0 ratings
1 star 2 stars 3 stars 4 stars 5 stars
comments

Generals And Majors Bass Tab

Standard Tuning


Intro
G|---------------------------------------3-5-----------3-5-----------|
D|-3--3--3---1-3-3--3--3---1-3---------5-------------5---------------|
A|---------3-------------3-----3--3--3-------3--3--3-----------------|
E|-------------------------------------------------------------------|

G|-----------1-3-----------1-3---------------------------------------|
D|---------3-------------3-----3--3--3---1-3-3--3--3---3-1-----------|
A|-1--1--1-------1--1--1---------------3-------------1---------------|
E|-------------------------------------------------------------------|

Verse
G|----------------------------------------------------------------|
D|-3--3--3---1-3-3--3--3---1-3-3--3--3---1-3-----------0-2-3------|
A|---------3-------------3-------------3---------0-1-3------------|
E|-------------------------------------------1-3------------------|
[ Tab from: http://www.guitartabs.cc/tabs/x/xtc/generals_and_majors_btab.html ]
G|--------------------------------------|
D|--------------------------------------|
A|-5-5-5-5-5-5-5-5-1-1-1-1-3-3-3-3------|
E|--------------------------------------|

G|----------------------------------------------|
D|-3~~~~~~~-1~~~~~~~----------------------------|
A|-------------------1~~~~~~~-------------------|
E|---------------------------1~~~~~~~-----------|

Outro 
G|--------------------------------------------------------------|
D|-3--3--3---1-3-3--3--3---1-3----------------------------------|
A|---------3-------------3-----3--3--3--3-2-3--3--3--3-2--------|
E|--------------------------------------------------------------|

G|--------------------------------------------------------------|
D|-----------------------------3--3--3---1-3-3--3--3---3-1------|
A|-1--1--1-------1--1--1---------------3-------------1----------|
E|---------1-4-1---------1-4-1----------------------------------|
Comments