Xpunkha - Kosta Porno Chords & Tabs

 

Kosta Porno Chords & Tabs

Xpunkha Chords & Tabs

Version: 1 Type: Bass Tab 0 ratings
1 star 2 stars 3 stars 4 stars 5 stars
comments

Kosta Porno Bass Tab

Kosta Porno
Xpunkha

bl@st3r
blasttorres@hotmail.com


Intro
g|---------------------------------------------------|
d|---------------------------------------------------|
a|----3----------------------3-3---------------------|
e|---------------------------------------------------|
[ Tab from: http://www.guitartabs.cc/tabs/x/xpunkha/kosta_porno_btab.html ]
Verse 1
g|-----------------|
d|-----------------|
a|--5-5------------|
e|------5-5---3-3--|

Chorus/ verse 2 
g|--------------------------------------------|
d|--------7-7-5-5-----------------------------|
a|---5-5----------5------7-75-5--------------|
e|------------------5-5-----------3-3-2323----|
Comments