Ximena Sarinana - Cuento Chords & Tabs

 

Cuento Chords & Tabs

Ximena Sarinana Chords & Tabs

Version: 1 Type: Tab 1 rating
1 star 2 stars 3 stars 4 stars 5 stars
comments

Cuento Tab

   
#Tab 
#Ximena Sariñana - Cuento
#Transcripcion por Oscar Arzola y Lalo Quintero
#Dudas y correcciones a oscararzola@gmail.com
#Gracias a ximena por hacer una rola tan chida
#Algun dia aprendere escalas por lo mientras les pongo una forma de tocar los arreglos y que no suenan tan mal..


#Tonalidades Basicas

Dm - Am - Gm

# El * representa notas ligadas o que se tocan muy rapido



#Bajeo puedes hacerlo con la guitarra o bien con el Bajo pero lo pongo en tab para guitarra.


Comienza la bateria y entra el bajo asi..


Dm

e-----------|------------|----------|-------------
B-----------|------------|----------|-------------
G-----------|------------|----------|-------------
D-----------|------------|----------|-------------
A------3--5-|-3--5--3--5-|----3--5--|-3--5--3--5--
E----5------|------------|--5-------|------------- 


Am

e-----------|------------|----------|-------------
B-----------|------------|----------|-------------
G-----------|------------|----------|-------------
D-----------|------------|----------|-------------
A-----------|------------|----------|-------------
E----5------|-3--5--3--5-|--5-------|-3--5--3--5-- 

Gm

e-----------|------------|----------|-------------
B-----------|------------|----------|-------------
G-----------|------------|----------|-------------
D-----------|------------|----------|-------------
A-----------|------------|----------|-------------
E----3------|-1--3--1--3-|--3-------|-1--3--1--3--



El bajo se repite toda la rola igual, necesitas escuharla para saber los cambios sin embargo solo sigues la secuencia Dm - Am - Gm

#Arreglo de la guitarra una pequeña es cala cuando dice


La emoción mece, crece y 

te quiero ver 

Am7  

e--------------------------------------------------
B--------------------------------------------------
G--------------------------------------------------
D------7*8*7--5--------------------------0---------
A---------------8-7-5---5-7-8-8-7-5-5-5------------
E---------------------8----------------------------
[ Tab from: http://www.guitartabs.cc/tabs/x/ximena_sarinana/cuento_tab.html ]
Puede que te quiera secuestrar y 

despues de vaya a torturar no se

(Hacerlo rapido como en escala)

e-----------------------|--------------------------
B-------------5-6-5p6h5-|--8-8--6-6--5-5-----------
G---------5-7-----------|--------------------------
D-----5-7---------------|--------------------------
A-----------------------|--------------------------
E-----------------------|--------------------------

Pero solo quiero contemplar cuantas de tus pecas

puedo yo entender..

(este es el que menos me sale esta bien perro si tu puedes mejorarlo ;) estaria muy chido)

muy rapido

e--------------------------------------------------
B--------------------------------------------------
G--------------------------------------------------
D-------2-3-2*3*2-3-5-3*5*3-2-3-2*3*2-2-2-3--------
A----3-5-------------------------------------------
E--------------------------------------------------


Sigue otro pedazo de la canción sin guitarra...


Enciendo y entiendo que no te conozco bien.. eh ehe..


Puede que te quiera secuestrar y despues te

vaya a torturar no se...


e--------------------------------------------------
B--------------------------------------------------
G--------------------------------------------------
D----5-7--7-7--7-5--5-3--3-2---2-3-----------------
A----------------------------5-----5---------------
E--------------------------------------------------

Pero solo quiero contemplar cuantas de tus pecas

puedo yo entender..

e-------------------------|------------------------
B-------------------------|-6-5-6-5----------------
G------5*7-7-7----5*7-7-7-|--------7-5-------------
D---7-7--------5-7--------|-----------7-5-8--------
A-------------------------|------------------------
E-------------------------|------------------------

Por que ya no puedo esperar Quiero que te vengas tomar cafe...

e--------------------------------------------------
B--------------------------------------------------
G---12--10-9-10-9-10--12--10-9-10-9-10--9--10-10---
D--------------------------------------------------
A--------------------------------------------------
E--------------------------------------------------
Comments