Xavier Rudd - Gba Chords & Tabs

 

Gba Chords & Tabs

Xavier Rudd Chords & Tabs

Version: 1 Type: Tab 0 ratings
1 star 2 stars 3 stars 4 stars 5 stars
comments

Gba Tab

   
As you no this is xaxier rudds G B A which I love so enjoy it

Lapslide Tuning - E B E G B E

Intro + Verse
----------------
Eb|---------------------|------------------------|
Bb|---------------------|------------------------|
Ab|---------------------|------------------------|
Eb|--7--7--x-x-x-7-x-x--|--5--5-x-x--------------|
Bb|--5--5--x-x-x-5-x-x--|--3--3-x-x--(2h3p2p0----|
Eb|---------------------|---------------------3)-|

() part only in the intro. Just play the chord again.

Eb|--------------------------|--------------------||
Bb|--------------------------|--------------------||
Ab|--------------------------|--2--2-------2------||
Eb|0--/5--5-000-/5p0-/3-0----|--0--0-x-x-x-0-x-x -||
Bb|0--/5--5-000-/5p0-/3-0----|--0--0-x-x-x-0-x-x--||
Eb|0--/5--5-000-/5p0-/3-0----|--0--0-x-x-x-0-x-x--||


Verse Variation
[ Tab from: http://www.guitartabs.cc/tabs/x/xavier_rudd/gba_tab.html ]
------------------
Eb|------------------------|--------------------------||
Bb|------------------------|--------------------------||
Ab|------------------------|--------------------------||
Eb|--/7--/7--x-x-x-/7-x-x--|--/10--/10-x-x-x-/10-x-x -||
Bb|--/7--/7--x-x-x-/7-x-x--|--/10--/10-x-x-x-/10-x-x--||
Eb|--/7--/7--x-x-x-/7-x-x--|--/10--/10-x-x-x-/10-x-x--||

Eb|-------------------------|--------------------||
Bb|-------------------------|--------------------||
Ab|-------------------------|--2--2-------2------||
Eb|--/5--5-000-/5p0-/3-0----|--0--0-x-x-x-0-x-x -||
Bb|--/5--5-000-/5p0-/3-0----|--0--0-x-x-x-0-x-x--||
Eb|--/5--5-000-/5p0-/3-0----|--0--0-x-x-x-0-x-x--||

Chorus

Eb|--------------------|------------3--p0----|
Bb|--------5-3-3-2-3----|-------3h5----------|
Ab|--------------------|---------------------|
Eb|--7-7---------------|--5-5----------------|
Bb|--5-5---------------|--3-3----------------|
Eb|--------------------|---------------------|

Eb|--------------------------|--------------------||
Bb|--------------------------|--------------------||
Ab|--------------------------|--2--2-------2------||
Eb|0--/5--5-000-/5p0-/3-0----|--0--0-x-x-x-0-x-x -||
Bb|0--/5--5-000-/5p0-/3-0----|--0--0-x-x-x-0-x-x--||
Eb|0--/5--5-000-/5p0-/3-0----|--0--0-x-x-x-0-x-x--||
Comments