X Japan - Endless Rain Chords & Tabs

 

Endless Rain Chords & Tabs

X Japan Chords & Tabs

Version: 5 Type: Tab 0 ratings
1 star 2 stars 3 stars 4 stars 5 stars
comments

Endless Rain Tab

   
X JAPAN - ENDLESS RAIN    RE-EDITED : Ian Ng

Tuning : Standard          ***I found this tab on net, tried to play it but it
was 30-40% wrong, so I re-edit it. And here it is.  =)


Roadmap = Intro, A, B, C, D, C (2x), E (End)





Intro 2x
                                                         
|--0-----0-----------------|-------------------------- ||
|--1-----1-----3-----3-----|--1-----1-----3-----3-----.||
|-----0-----0--4-----4-----|--2-----2-----4-----4----- ||
|-----------------5-----5--|-----3-----3-----5-----5-- ||
|--3-----------3-----------|--3-----------3-----------.||
|--------------------------|-------------------------- ||


A
                                                      
|--------------------1-----|---------------^-----0-1--|--1-----1-----0-----0--|--1-----1-----0^-------|
|--1-----1-----1-----1-----|--1-----1-----3l---3------|--1-----1-----1-----1--|--1-----1-----1l-------|
|--2-----2-----2-----------|--2-----2-----0l----------|-----0-----0-----0-----|-----0-----0--0l---0---|
|-----3-----3-----3-----3--|-----3-----3---l----------|-----------------------|---------------l-------|
|--------------------------|---------------l----------|-----------------------|---------------l-------|
|--1-----------------------|--3-----------3l----------|--3-----------3--------|--3-----------3l-------|

                                                                               
|--0^-0--0--0-0-----------|-------------------1----|--0^----------------------|-------------------------|
|--1l---------------------|--3^-3--3--3-3-----0----|--1l-1--1--1-1---0-----0--|--1^----3-----1-----0----|
|--0l---------------0--0--|--4l---------------1----|--2l----------------2-----|--2l----2-----0-----0----|
|---l---------------------|--5l--------------------|---l----------------------|---l-3-----3-----0-----0-|
|--3l---------------------|--3l---------------2----|--0l----------------------|---l---------------------|
|---l---------------------|------------------------|--------------------------|--1l----------3----------|


                                                                              
|-0^-0--0--0-0-----------|-------------------1----|--0^---------5--5--5--5-3-|---------------0---------||
|-1l---------------------|--3^-3--3--3-3-----0----|--1l--------------------0-|-----------3---0----3----||
|-0l---------------0--0--|--4l---------------1----|---l---2--2--5------------|--------0----------------||
|--l---------------------|--5l--------------------|---l---------3------------|-----0-------------------||
|-3l---------------------|--3l---------------2----|--0l----------------------|-------------------------||
|------------------------|------------------------|--------------------------|--3------------3---------||


B
                                                                              
|*--^-------0-------------|--------------0---------|---^-------0--------------|--------1-----0-----0-----|
| -1l----------3-------0--|--1--------3-------3----|--1l----------3-------0-1-|--------1-----1-----1-----|
| -2l----------4---5------|--------0-----1---------|--2l----------4----5------|-----0-----0-----0-----0--|
| --l----3----------------|-----2------------------|---l----3-----------------|--------------------------|
| --l-3-------------------|--3---------------------|---l-3--------------------|--3-----------------------|
|*-1l----------3----------|--------------0---------|--1l----------3-----------|--------------------------|

[ Tab from: http://www.guitartabs.cc/tabs/x/x_japan/endless_rain_tab_ver_5.html ]
C                                                      
                                                        
|-0-----------------7-----|--8------------------10-8-7-|--8--------------------10-8-7-|--8-------10--8--7----|
|-------1-----------------|--------5-------------------|---------10-------------------|-------6------8--8----|
|----0-----0-----0-----0--|-----5-----5-----0----------|-----10------10-----0---------|-----7--------0--0----|
|-------------------------|----------------------------|------------------------------|--0-----------------0-|
|-3-----------2-----------|--0-------------------------|--8--------------7------------|----------------------|
|-------------------------|--------------3-------------|------------------------------|----------------------|




|-0-----0-----------7-----|--8------------------10-8-7-|--8---------------------10-8-7-|--8----------7-----||
|-1-----1-----------8-----|--10------------------------|---------10--------------------|-------6-----8---8-||
|-0--0-----0-----0-----0--|---------9-------0----------|-----10------10------0---------|-----7---7---0-----||
|-------------------------|------10---10---------------|-------------------------------|--0----------------||
|-3-----------2-----------|--0-------------------------|--8----------------------------|-------------------||
|-------------------------|--------------3-------------|-----------------0-------------|-------------------||


D                                                      
                                                                      
----------0-------0---------------|----------3---------------1-----1-|
--------1---1-------1-----------1-|--------3---3-----------3-----3---|
------0-------0-------0-------0---|------4-------4-------4-----1-----|
----2-----------2-------2---2-----|----5-----------5---5-------------|
--3-----------------------3-------|--3---------------3-------2-------|
----------------------------------|----------------------------------|


                                                                      
----------0-----------------------|----------1---------------3-------|
--------1---1-----1h0---0-1h0-----|--------1---1-----------3---3-----|
------2-------2-------2-------2-0-|------2-------2-------4-------4---|
----2-----------2-----------------|----3-----------3---5-----------5-|
--0-------------------------------|----------------------------------|
----------------------------------|--1---------------3---------------|


                                                                      
----------0-------0---------------|----------3-------3---------------|
--------1---1-------1-----------1-|--------3---3-------3-----------3-|
------0-------0-------0-------0---|------4-------4-------4-------4---|
----2-----------2-------2---2-----|----5-----------5-------5---5-----|
--3-----------------------3-------|--3-----------------------3-------|
----------------------------------|----------------------------------|


                                                                  
----------0-------1-------1-------|--3-------3-------0^---------||
--------1---1-------1-------1-----|----3-------3-----0l---3-----||
------2-------2-------2-------2---|------5-------5---0l---------||
----2-------------------3-------3-|--------5-------5--l---------||
--0-------------------------------|-------------------l---------||
----------------3-1---------------|--3---------------3l---------||


                                                       

E (End)                                                        
                                                      
--0-----0-----------------|--------------------------|--1-----1-----1-----1--0-----|--0-----^-------||
--1-----1-----3-----3-----|--1-----1-----3-----3-----|--1-----1-----1-----1-----3--|--1----l--------||
-----0-----0--4-----4-----|--2-----2-----4-----4-----|-----0-----0-----0-----------|--0---l---------||
-----------------5-----5--|-----3-----3-----5-----5--|-----------------------------|--2--l----------||
--3-----------3-----------|--1-----------------------|--3--------------------------|--3-l-----------||
--------------------------|--------------------------|-----------------------------|--0l------------||
Comments