X Ecutioners - Its Going Down Chords & Tabs

 

Its Going Down Chords & Tabs

X Ecutioners Chords & Tabs

Version: 2 Type: Tab 1 rating
1 star 2 stars 3 stars 4 stars 5 stars
comments

Its Going Down Tab

X-ecutioners
"its going down"
Standard tuning
tabbed by:Stephen McLean

intro
 [------------------------------------------]
 [------------------------------------------]
 [--------------8-8-8-----------------------]
 [-2--2--22-22--8-8-8----2-2-22--5/8--5/8---]
 [-2--2--22-22--8-8-8----2-2-22--5/8--5/8---]
 [-2--2--22-22-----------2-2-22--5/8--5/8---]

main riff
[ Tab from: http://www.guitartabs.cc/tabs/x/x_ecutioners/its_going_down_tab_ver_2.html ]
 [------------------------------------------]
 [------------------------------------------]
 [------------------------------------------]
 [-2--2--22-22--------------5/8---5/8-------]
 [-2--2--22-22---(pause)----5/8---5/8-------]
 [-2--2--22-22--------------5/8---5/8-------]
				^
order				^
intro x6                        ^
main riff x8 don't play second part on 8th time
intro x4
main riff x8
intro x6
...and so on

im sure you can figure out the beat,this is my
 first tab i have done on computer so i hope
 you injoy, any questions or corrections please
email me at maverick_max@hotmail.com thank you.
Comments