X Ecutioners - Its Goin Down Chords & Tabs

 

Its Goin Down Chords & Tabs

X Ecutioners Chords & Tabs

Version: 5 Type: Tab 0 ratings
1 star 2 stars 3 stars 4 stars 5 stars
comments

Its Goin Down Tab

   
Artist: X-Ecutioners feat. Linkin Park and Wayne Static
Song: It's Goin Down
Album: Built From Scratch
Written by: Wayne Static
Tabbed by Drew Montgomery
E-mail: royalfate@aol.com
Tuning: Drop-D and down 1 whole step(C-G-C-F-A-D)
Key: * = harmonic, h = hammer-on, p = pull-off

This song rocks!!! It's very simple though and not 
difficult to play. God bless and rock on!!!

Intro/Chorus/Bridge(Guitar 1)(distortion)
[ Tab from: http://www.guitartabs.cc/tabs/x/x_ecutioners/its_goin_down_tab_ver_5.html ]
D|-----------------------------------------------------|
A|-----------------------------------------------------|
F|-----------------------------------------------------|
C|------------2-----2-2-3p2-3p2-2.7*-2.7*-2.7*---------|
G|------------2-----2-2-3p2-3p2-2.7*-2.7*-2.7*---------|
C|------------2-----2-2-3p2-3p2-2.7*-2.7*-2.7*---------|
 volume swell^^^
D|-----------------------------------------------------|
A|-----------------------------------------------------|
F|-----------------------------------------------------|
C|--2-2-3p2-2p0-2p0------------------------------------|
G|--2-2-3p2-2p0-2p0------------------------------------|
C|--2-2-3p2-2p0-2p0------------------------------------|

Intro/Chorus(Guitar 2)(ditortion)

D|-----------------------------------------------------|
A|-----------------------------------------------------|
F|--13-13-13-13-13-13-13-13-13-13-13-13-11-11-11-11-11-|
C|--x--x--x--x--x--x--x--x--x--x--x--x--x--x--x--x--x--|
G|--11-11-11-11-11-11-11-11-11-11-11-11-9--9--9--9--9--|
C|-----------------------------------------------------|

D|-----------------------------------------------------|
A|-----------------------------------------------------|
F|--11-11-11-14-14-14-14-14-14-14----------------------|
C|--x--x--x--x--x--x--x--x--x--x-----------------------|
G|--9--9--9--12-12-12-12-12-12-12----------------------|
C|-----------------------------------------------------|

Verse(distortion)

D|-----------------------------------------------------|
A|-----------------------------------------------------|
F|-----------------------------------------------------|
C|--2-2-2h3-2-2-----2p0-2p0----------------------------|
G|--2-2-2h3-2-2-----2p0-2p0----------------------------|
C|--2-2-2h3-2-2-----2p0-2p0----------------------------|

There you go. Very easy. Bye-bye.
Comments