X-ecutioners - Body Rock Chords & Tabs

 

Body Rock Chords & Tabs

X-ecutioners Chords & Tabs

Version: 1 Type: Tab 0 ratings
1 star 2 stars 3 stars 4 stars 5 stars
comments

Body Rock Tab

Body rock intro:

E|-------------------------------------------|
B|-------------------------------------------|
G|-------------------------------------------|
D|-3---4---5---6-----------------------------|
A|-3---4---5---6--X-4------------------------|
E|-1---2---3---4-----------------------------|



E|--(15)(many times through)----------------|
B|-------------------------------------------|
G|-------2b(4)-----(2)-----------------------|
D|-------------------------------------------|
A|-----0h3p0---------------------------------|
E|--3h5---------(5)x-(5)x-x3h5x5(5)-(5)-----|



E|--(15)(many times through)----------------|
B|-------------------------------------------|
G|-------------------------------------------|
D|-------------------------------------------|
A|-----0h3p0---------------------3h5p3p0-----|
E|--3h5------x-x-x-3x5x5----(3h5)------------|



E|--(15)(many times through)----------------|
B|-------------------------------------------|
G|-------2b(4)-----(2)-----------------------|
D|-------------------------------------------|
A|-----0h3p0---------------------------------|
E|--3h5---------(5)x-(5)x-x3h5x5(5)-(5)-----|



E|--(15)(many times through)----------------|
B|-------------------------------------------|
G|-------------------------------------------|
D|-------------------------------------------|
A|-----0h3p0---------------------------------|
E|--3h5------x-x-x-3x5x5x5x5x5x5///---------|



[ Tab from: http://www.guitartabs.cc/tabs/x/x_ecutioners/body_rock_tab.html ]
E|--(15)(many times through)----------------|
B|-------------------------------------------|
G|-------------------)-----------------------|
D|-------------------------------------------|
A|-----0h3p0---------------------------------|
E|--3h5---------(5)x-(5)x-x3h5x5(5)-(5)-----|



E|--(15)(many times through)----------------|
B|-------------------------------------------|
G|-------------------------------------------|
D|-------------------------------------------|
A|-----0h3p0---------------------3h5p3p0-----|
E|--3h5------x-x-x-3x5x5----(3h5)------------|



E|-------------------------------------------|
B|-------------------------------------------|
G|-------------------------------------------|
D|-------------------------------------------|
A|-----0h3p0---------------------------------|
E|--3h5---------(5)x-(5)x-x3h5x5(5)-(5)-----|



E|-------------------------------------------|
B|-------------------------------------------|
G|-------------------------------------------|
D|-------------------------------------------|
A|-----0h3p0---------------------------------|
E|--3h5------x-x-x-3x5x5x5x5x-12////---------|

Verse: 

E|-------------------------------------------|
B|-------------------------------------------|
G|---------5---7-----------------------------|
D|-7---5---5---7---9-------------------------|
A|-7---5---3---5---9---repeat again----------|
E|-5---3-----------7-------------------------|







E|-------------------------------------------|
B|-------------------------------------------|
G|-------------------------------------------|
D|-3---4---5---6-----------------------------|
A|-3---4---5---6--X-4------------------------|
E|-1---2---3---4-----------------------------|


Well
that's it folllllkksss

Most of it is correct... According to my standards

If u got a problem...

Stick it up your culo 

Sincerely
Chris n-jau
Comments