X - Los Angeles Chords & Tabs

 

Los Angeles Chords & Tabs

X Chords & Tabs

Version: 3 Type: Tab

Los Angeles Tab

   
Intro
e------------------------------------|
b------------------------------------|
g------------------------------------|
d-9-5-7------------------------------|
a-7-3-5-5-7777777777        -----797-|
e-------3-5555555555.......---9------|
Verse
e------------------------------------------------|
b------------------------------------------------|    next part of verse and bridge are very
g------------------------------------------------|    similar and easy to figure out
d--------------------55555555-5-5-5-5-5-5-5-5/0--|
a-77777777--55555555-33333333-3-3-3-3-3-3-3-3/0--|      /-slide
e-55555555--53333333-----------------------------|
Chorus
                                                          chorus might not be exactly 
right. if you know it, feel free to post a
e------------|                                          comment.
b------------|
g------------|
d-99-5-7-9-7-|
a-77-3-5-7-5-|
e------------|
[ Tab from: http://www.guitartabs.cc/tabs/x/x/los_angeles_tab_ver_3.html ]