X - Johny Hit And Run Paulene Chords & Tabs

 

Johny Hit And Run Paulene Chords & Tabs

X Chords & Tabs

Version: 1 Type: Tab 0 ratings
1 star 2 stars 3 stars 4 stars 5 stars
comments

Johny Hit And Run Paulene Tab

Absolutly nowhere on the entire damn Internet could I find this song...so I tabbed
it...If I screwed up any parts well you should be able to fix it yourselves

PS. I put the lyrics on here in case anyone had trouble finding those too

X - 'Johny Hit and Run Paulene' from Los Angeles LP
transcribed by NaTaS:

intro
e--------7s8-8-8-7s8-8-8-7s8-8-8------------------|
B--------7s8-8-8-7s8-8-8-7s8-8-8-10----8-8--------|
G---9-10-------------------------10-10---8h9------|
D-10----------------------------------------10-8--|
A-------------------------------------------------|
E-------------------------------------------------|

riff
e----------------|-----------------|--------------|
B----------------|-----------------|--------------|
G----------------|-----------------|-7---7--------|
D-9s10-10-10-7-7-|-2-2-3-3-2-2s3-3-|-7---7--------|
A-9s10-10-10-7-7-|-2-2-3-3-2-2s3-3-|-5---5--------|
E-7s8---8--8-5-5-|-0-0-1-1-0-0-1-1-|--------------|

[ Tab from: http://www.guitartabs.cc/tabs/x/x/johny_hit_and_run_paulene_tab.html ]
solo
e-8-8-8-8-8----------8-8-8----------8---------------------|
B-8-8-8-8-8-10-------8-8-8-10-------8-7s8-8-8-7s8-8-8-7s8-|
G-----------10-8h9---------10-8h9-------------------------|
D-----------------10-------------10-----------------------|
A---------------------------------------------------------|
E---------------------------------------------------------|

e---8--------------8-11-11-8-------------------------|
B-8-8--10----------8-10-10-8-------------------8-7s8-|
G------10-10-8h9---------------11-10-8-8b9b8---------|
D---------------10--------------------------10-------|
A----------------------------------------------------|
E----------------------------------------------------|

e----------------------------------------------------|
B----------------------------------------------------|
G-10-8-8b9b8---8-8----8-8--8-8---8-8--8-8-8-10b11r---|
D-----------10-8-8----8-8--8-8---8-8--8-8-8-10b11r---|
A-----------------9h10---10---10----10---------------|
E----------------------------------------------------|

he bought a sterilized hypo to shoot a sex machine drug he got 24 hours to shoot all
paulenes between the legs he'll throw 96 tears thru 24 hours sexed once every hour
johny hit and run paulene l.a. bus doors open kicking both doors open when it rested
on 6th street that's when he drug a girl inside he was spreading her legs and didn't
understand dying she was still awake johny hit and run paulene when he was waking up
beside the bed he found clumps of hair the last paulene wouldn't cooperate she wasn't
what you'd call living really but she was still awake johny hit and run paulene
Comments