X-y - I Miss You Chords & Tabs

 

I Miss You Chords & Tabs

X-y Chords & Tabs

Version: 1 Type: Tab

I Miss You Tab

   
			
                       X-Y - I miss you

                                       Music & Words by J-L Ducroiset


tabbed by: J-L Ducroiset
email    : jl@xyrock.net
website  : www.xyrock.net (www.sliptrickrecords.com)


Notation:

  b      : bend 
  h	 : hammer-on
  p	 : pull-off                                 
  \      : slide down               
  /      : slide up                 
  ~      : vibrato
  x      : mute note


Intro:
   C#m	            b	             E          A         
e|------------------------------------------------------|
B|------------------------------------------------------|
G|------------------------------------------------------|
D|----------9-11/14-13~~~-----11-13-14\9----------------|
A|-------11----------------------------------11-12~~\---|
E|------------------------------------------------------|
 |
 |
e|-4---------------------------------0------------------|
B|-5----------------4----------------0-----------2------|
G|-6----------------4----------------1-----------2------| 
D|-6----------------4----------------2-----------2------|
A|-4----------------2----------------2-----------0------|
E|-----------------------------------0------------------|

--Same chords until the end (clean/distortion)--

   C#m        b       E         A         C#m ...
e|---------------------------------------|--------|
B|--------------------------9------------|--------|
G|------8h9p8-----------------9----------|--------|
D|------------9-----------------11~~---9-|-11~~---|
A|------------------9-11-----------------|--------|
E|---------------------------------------|--------|



1st solo:
   C#m           b                E             A                
e|---------------------------------------------------------------|
B|---------------------------------------------------------------|
G|---------------------------------------------------------------|
D|---/11~~---13-13b14b13----11-13/14--\9-----------------------9-|
A|------------------------------------------/11-12~~-------------|
E|------------------------------------------------------9h12-x---|


   C#m             b               E                              
e|----------------------------------------------------------------
B|----------------------------------------------------------------
G|----------------------------------------------------------------
D|---------------9---------------9---------------9h11p9----9-11-9-
A|---------------------------------11~-9----9-11--------11--------
E|-12~~---9h12-x---11~~---9h12-x---------12-----------------------

   A
e|--------------------------------9h12p9---|
B|--------------------9h10p9-----9------9--|
G|-11b13b11-9----9-11-------11--9--------9-|
D|------------11--------------11-----------|
A|-----------------------------------------|
E|-----------------------------------------|


   C#m             b              E         A                          
e|-----------------------------------------------------12-11b12b11-9-|
B|-------12----------------9-9b10b9------------------9---------------|
G|-11b13------11b9-11~~-------------/9-------------------------------|
D|----------------------------------------9-11~~---------------------|
A|-------------------------------------------------------------------|
E|-------------------------------------------------------------------|

[ Tab from: http://www.guitartabs.cc/tabs/x/x-y/i_miss_you_tab.html ]
   C#m                    b                         E            
e|----------12-11b12b11-9-----------------------------------------
B|-9~~----9--------------------------------------12---------------
G|------------------------11~~-----------11h13h14---14-13~~----13-
D|-------------------------------11h13h14-------------------11----
A|----------------------------------------------------------------
E|----------------------------------------------------------------

                A
e|-----------------------------------|
B|-14/16-16b17-16b17~~---16b17b16-14-|
G|-----------------------------------|
D|-----------------------------------|
A|-----------------------------------|
E|-----------------------------------|


   C#m                  b                   E                  A
e|-----------------------------------------16b17-b16-----14---/21~~\------|
B|16b17~~---16b17b16-14/19~~---16b17b16-14------------------14------------|
G|------------------------------------------------------------------------|
D|------------------------------------------------------------------------|
A|------------------------------------------------------------------------|
E|------------------------------------------------------------------------|


      C#m               b                E              A             
e|-------------------------------------------------------------------|
B|----14~~---14\9-9/12-12\7-7~~---9-9b10b9---------------------------|
G|---x------------------------------------------9-----8-9~~------9-8-|
D|--x----------------------------------------------------------------|
A|-x-----------------------------------------------------------------|
E|/------------------------------------------------------------------|

   C#m ...
e|---------|
B|---------|
G|-6~~-----|
D|---------|
A|---------|
E|---------|



2nd solo:
   C#m           b                E             A                
e|---------------------------------------------------------------|
B|---------------------------------------------------------------|
G|---------------------------------------------------------------|
D|---/11~~---13-13b14b13----11-13/14--\9-----------------------9-|
A|------------------------------------------/11-12~~-------------|
E|------------------------------------------------------9h12-x---|
 

   C#m              b                              E                 A
e|------------------------------------------------------------------------|
B|--------------------------------------------------------12--------------|
G|--------------------------------9h11p9---9-11-9-11b13----------9--------|
D|----------------9----------9-11--------9--------------------------11~~--|
A|----------------------9-11----------------------------------------------|
E|-12~~---9h12-x----11----------------------------------------------------|


    C#m           b               E                 A
e|-------------------------------------------------------------------|
B|-------------------------------------------------------------14-16-|
G|---9-8-9~~--8-9/11-9-11~~----11/13-11-13~~-----13/14-13-14~~-------|
D|--x------------------------9----------------14---------------------|
A|-x-----------------------------------------------------------------|
E|/------------------------------------------------------------------|


   C#m           b             E              A
e|--------------------------------------------------------|
B|-16b17---16-17/19~~---17-19-21b22b21~~---12-14~~--------|
G|--------------------------------------------------------|
D|--------------------------------------------------------|
A|--------------------------------------------------------|
E|--------------------------------------------------------|


Outro (same as intro)


Last chord:

    C#m9
e|---4------|
B|---5------|
G|---8------|
D|---6------|
A|---4------|
E|----------|