Wylde Zakk - Road Back Home Chords & Tabs

 

Road Back Home Chords & Tabs

Wylde Zakk Chords & Tabs

Version: 1 Type: Tab 0 ratings
1 star 2 stars 3 stars 4 stars 5 stars
comments

Road Back Home Tab

   
#----------------------------------PLEASE NOTE--------------------------------#
#This file is the author's own work and represents their interpretation of the#
#song. You may only use this file for private study, scholarship, or research.#
#-----------------------------------------------------------------------------#



Artist: Zakk Wylde
Album: Book of Shadows		
Title: Road Back Home

Tuning:  Standard

Rhythm guitar chords: in place of piano part..

A, Em, G, D

SLIDE PART:

|------9---7---7--/---5------------------/----------------------------|
|--10-------------/-s-----5--7---5-------/----------------------------|
|-s---------------/---------s-------6--7-/-6-6--9--7------------------|
|-----------------/-------------------s--/-----s-----7--9-------------|
|-----------------/----------------------/-------------s--------------|
|-----------------/----------------------/----------------------------|

                what you give is what you get, but you…

|-------------/-----------------------------/-------------------------|
|-------7-(5)-/----------------3------2-----/---------------3---2-----|
|-------7-(6)-/--0----0---2------2------2---/--0----0----2--2---2-----|
|-7----s------/---0----0--2--------2------2-/---0-----0--2--2---2-----|
|-------------/-----------0-----------------/------------0------0-----|
|-------------/-3---2-----------------------/-3---2-------------------|

just, a touch away                                        chorus

|-----------------------2-----------/---------0---------/-------------|
|---3-------2------3------3-----3---/------3----3-------/-------------|
|-----4-------4------4------4-----4-/---2---------2-----/--2----------|
|---------4-----4-------------4-----/-0-----------------/--2----------|
|-2---------------------------------/-------------------/--0----------|
|-----------------------------------/---------------0-3-/-------------|



|-----/-----/--------------/-----------------------------------|
|-----/--3--/-------3------/-----------------------------------|
|-0---/--2--/-------2------/-----------------------------------|
|-0---/--0--/---2---0------/-----------------------------------|
|-x---/-----/---2----------/-----------------------------------|
|-3---/-----/---0------0-3-/-----------------------------------|


SOLO:

|----------/--------------------------/------------------------|
|----------/-----------------17-17-17-/-17--15--17--17---------|
|----14----/--14-16-16---16-----------/---p-------bend---------|
|-16----16-/----------bend------------/-----------------------|
|----------/--------------------------/------------------------|
|----------/--------------------------/------------------------|



|----------/----------------------------------------------------------|
|----------/----------------------------------------------------------|
|-2-----2--/-4-----4--4-2---4-2-0-4-2-0-------------------------------|
|--bend----/---bend----p-----p-p---p--p-4-2-0-4-2-0-------------------|
|----------/-----------------------------p-p---p-p--4-2-0-4-2-0-------|
|----------/-----------------------------------------p-p---p-p--------|


[ Tab from: http://www.guitartabs.cc/tabs/w/wylde_zakk/road_back_home_tab.html ]
|-------------/------------------------/-----------------------|
|-------------/---bend-----bend--------/-----------------------|
|-------------/-16--16---16--16-14-16--/-----------------------|
|-------------/------------------------/-----------------------|
|--p-p---p-p--/------------------------/-----------------------|
|-3-2-0-3-2-0-/------------------------/-----------------------|

                harmony lead:

|--------------------------------------/-----------------------|
|--------------------------------------/-----------------------|
|---------------12---12---12-12-11-12--/-----------------------|
|-----------------bend-------bend------/-----------------------|
|--------------------------------------/-----------------------|
|--------------------------------------/-----------------------|



|--------------------------------------/----17--14--14----------------|
|-14-15---14--------------------17-----/-17---17--17--17--------------|
|---h---------16---16----16--14---bend-/--bend----------16-16-14--14-16 
|---------------------bend-------------/------------------bend--16----|
|--------------------------------------/------------------------------|
|--------------------------------------/------------------------------|



|----/-17-14----------------------------------------------------------|
|----/------17-14-----17-14-------------------------------bend--------|
|-14-/-----------16-14-------16-14------16-14------------16--16-14----|
|----/----------------------------16-14-------16-14---14-----------16-|
|----/----------------------------------------------16----------------|
|----/----------------------------------------------------------------|


           OUTRO SOLO:

|--------/--12-------12--12--/-12-----12-------h---------------|
|--------/-----12----12------/---12---12--12-10--12------------|
|-14-16--/------bend---------/----bend------bend---------------|
|--------/------hold---------/---------------------------------|
|--------/-------------------/---------------------------------|
|--------/-------------------/---------------------------------|



|------------------------------/-17---17--17-17-17--------------------|
|-10---15--15-14---------------/--------bend------bend----------------|
|----------------16--16-14--16-/--------------------------------------|
|------------------bend--------/--------------------------------------|
|------------------------------/--------------------------------------|
|------------------------------/--------------------------------------|


|-19--19-19-----19--/-17--19--17--17--17--14-/-14-14---bend--14-------|
|---bend---bend-----/---h---------------s----/-------17----17---14-15-|
|-------------------/------------------------/--------------------h---|
|-------------------/------------------------/------------------------|
|-------------------/------------------------/------------------------|
|-------------------/------------------------/------------------------|

                        etc, repeat

|-------------------/-------------------------------------------------|
|-14--15--14--------/-14-17-14----14-17-14----14-17-14----------------|
|----h-------16--14-/----------17----------17----------17-------------|
|-------------------/-------------------------------------------------|
|-------------------/-------------------------------------------------|
|-------------------/-------------------------------------------------|
Comments