Wyclef Jean - Bubblegoose Chords & Tabs

 

Bubblegoose Chords & Tabs

Wyclef Jean Chords & Tabs

Version: 1 Type: Tab 0 ratings
1 star 2 stars 3 stars 4 stars 5 stars
comments

Bubblegoose Tab

   
Name:    Jokke
Artist:  Wyclef Jean
Song :   Bubblegoose
For:     Guitar
Tuning:  E,A,D,G,B,E
E-mail:  johancar@start.no
Album: Chef Aid (southpark)

Riff A:
[ Tab from: http://www.guitartabs.cc/tabs/w/wyclef_jean/bubblegoose_tab.html ]
    C         A       F      G
E---------------------------------|
B---------------------------------|
G-----0-------2-------2---------0-|
D---2-------2---2---3---3-----0---|
A-3-----2-0-------3---------2-----|
E-------------------------3-------|

Riff B:

        D         G       A
E-------------2-----2---------|
B-------------3-----2---------|
G---2-------2-------------2---|
D-0---0-2-0-------------2---2-|
A-----------------2---0-------|
E---------------3-------------|

the bit at the end (during the A chord) is wrong (i think).
i cudnt quite work it out bcos each time it was played either
wyclef or cartman started singing.

det var det... litt 4 enkel men... Johan Jahre Carlsen johancar@start.no
Comments