Wyclef Jean - 9 Chords & Tabs

 

9 Chords & Tabs

Wyclef Jean Chords & Tabs

Version: 1 Type: Tab 0 ratings
1 star 2 stars 3 stars 4 stars 5 stars
comments

9 Tab


  e ------/7 -------------------------------------------------------
  B -------------10-8-7-8-------------------------------------------
  G ----------------------9-----------------------------------------
  D ------------------------9---------------------------------------
  A ----------------------------------------------------------------
  E -0--------------------------------------------------------------
[ Tab from: http://www.guitartabs.cc/tabs/w/wyclef_jean/9_tab.html ]
  
  e ------/7--------------------------------/7----------------------
  B -------------10-8-7-8---8---------------------10-8-7-8----------
  G ----------------------9--------------------------------9b10--7--
  D ----------------------------------------------------------------
  A ----------------------------------------------------------------
  E ----------------------------------------------------------------


  e ------/7----------------------------------------------
  B -------------10-8-7-8---8---------------------------------
  G ----------------------9------------------------------
  D ----------------------------------------------------
  A ----------------------------------------------------
  E ----------------------------------------------------
Comments