Wyclef Jean - 911 Chords & Tabs

 

911 Chords & Tabs

Wyclef Jean Chords & Tabs

Version: 2 Type: Tab 1 rating
1 star 2 stars 3 stars 4 stars 5 stars
comments

911 Tab

I've noticed how every tab for this song is missing a part.
 Now to play this song you must tune your high e string down to a b.
 To do this just tune it down until the 1st and 2nd strings are 
in the same tone. Now the main riff(Inbetween lines) is played through
 out the verses and the other part is only played in the intro. 
The refrain is based on the verses so you should be ableto figure
 it out. Good Luck. 




Intro
Main Riff
*************************************************
|-----------------------------------------------|
|----7/12--10--8p7h8------------3---------------|
|----------------------9-------4---4---4--------|
|----------------------------4-------4----------|
|--------------------------2--------------------|
|-0---------------------------------------------|
[ Tab from: http://www.guitartabs.cc/tabs/w/wyclef_jean/911_tab_ver_2.html ]
|-----------------------------------------------|
|---7/12--10--8p7h8---------------------3-------|
|--------------------9---------0-----4--4-------|
|----------------------------0-0---4------------|
|-0------------------------2------2-------------|
|------------------------3----------------------|
*************************************************
|---12/10--8-7-8--------------------------------|
|---12/10--8-7-8--8--------------3--------------|
|------------------9b10-7-------4--4---4--------|
|------------------------------4------4---------|
|----------------------------2------------------|
|-0---------------------------------------------|

|---12/10--8-7-8--------------------------------|
|---12/10--8-7-8--8------------------------3----|
|------------------9-10-7------ -0-------4- 4---|
|------------------------------0-0-----4--------|
|----------------------------2--------2---------|
|-0------------------------3--------------------|

Comments, Complaints, or death threats to somepersonnamedjason@hotmail.com
Comments