Wyclef Jean - 911 Chords & Tabs

 

911 Chords & Tabs

Wyclef Jean Chords & Tabs

Version: 1 Type: Tab 0 ratings
1 star 2 stars 3 stars 4 stars 5 stars
comments

911 Tab

This is the 10000% correct version, i've watched the video a lot of times
                                                   
E||----------------------------------------------|
B||-------/12----10----8------7----8----5---------|
G||----------------------------------------------|
D||----------------------------------------------|
A||----------------------------------------------|
E||--0--------------------------------------3----|

[ Tab from: http://www.guitartabs.cc/tabs/w/wyclef_jean/911_tab.html ]
                                                
----------------------------------------------|
------------------------/12----10----8----7----|
------------4---------------------------------|
-------5--------------------------------------|
--5--------------0----------------------------|
----------------------------------------------|


                                                            
--------------------------------------------------------||
--8----5-------------------------------------------3----||
-----------------------------4----------------4---------||
------------------------5--------------4----------------||
-----------------5----------------2---------------------||
------------3-------------------------------------------||

Christoph.Pegel@epost.de
Comments