Ws - The Devil Is Bad Chords & Tabs

 

The Devil Is Bad Chords & Tabs

Ws Chords & Tabs

Version: 1 Type: Bass Tab 0 ratings
1 star 2 stars 3 stars 4 stars 5 stars
comments

The Devil Is Bad Bass Tab

Artist:           The W's
Album:          Fourth From The Last
Song Title:    Devil Is Bad
All songs written by Andrew Schar, Todd Gruener, James Carter, Brian Morris,
Val Hellman, and Bret Barker (c) 1998 Soda Pop Music/5 Minute Walk Music, A
Devision of 5 Minute Walk Records, Inc.  All rights reserved.  Used by
permission.

INTRO:
Bass only
G|-------------------|
D|-------------------|
A|--0-2--0----------|
E|------------3--2--|

VERSE1:
(instrumetnal in the beginning)
G|----------------------------------------------------------|
D|----------------------------------------------------------| (repeat 4X)
A|-----------------------0--0--2--2--2--2--2--0---------|
E|--0--0--2--2--3--3------------------------------3--2--|

G|-------------------------------------------------------------|
D|----0--0-2------0-2------0-2------0-2-2-2-2-2-0-------|
A|--2--2------0-2------0-2------0-2------------------3-2--|
E|-------------------------------------------------------------|
[ Tab from: http://www.guitartabs.cc/tabs/w/ws/the_devil_is_bad_btab.html ]
CHORUS:
G|------------------------------------|
D|--2------2------0-2-2------2-----| (repeat a bunch o' times)
A|------2------2----------2-2----2--|
E|------------------------------------|

VERSE 2:
lead into verse:
G|---------------|
D|---------------|
A|--2-0---------|
E|-------3-2----|

G|-------------------------------------------------------------------------------|
D|---------------------------------0---0-2-0-----------------------------------|
A|---------------0-0-2-2-2-2-2----2--------3-2-0-----0-2-2-2-2-2---------|
E|-0-0-2-2-3-3-------------------------------------3-2---------------0-3-2--|

G|-------------------------------------------------------------|
D|----0--0-2------0-2------0-2------0-2-2-2-2-2-0-------|
A|--2--2------0-2------0-2------0-2------------------3-2--|
E|-------------------------------------------------------------|

CHORUS 

THIRD VERSE
*THE THIRD VERSE HAS THE SAME LYRICS AS THE FIRST, BUT DO IT WITH THE SECOND
VERSE'S TAB...IF THAT MAKES ANY SENSE.

CHORUS AGAIN

That's about it.  It's pretty easy once you get the hang of it.  I'm sure it's
not exactly how Todd a.k.a. Rodd W plays it, but it sounds right when I play
along with the CD.   I've only been playing for about a month, so sorry if I
totally screwed it up!  Have fun!!!  +†+  Andy Ricks
E-mail:  andyricks@aol.com    swankin@hotmail.com

Comments